Beatles - The Honeymoon Song Chords & Tabs

 

The Honeymoon Song Chords & Tabs

Beatles Chords & Tabs

Version: 2 Type: Bass Tab 0 ratings
1 star 2 stars 3 stars 4 stars 5 stars
comments

The Honeymoon Song Bass Tab

THE HONEYMOON SONG

Written by Mikis Theodorakis & William Sansom

INTRO
  t=138
G|---------------------------------|-----------------6-------9-------|
D|-----------------6-------9-------|-7-----------7-------------------|
A|-7-----------7-------------------|---------------------------------|
E|---------------------------------|---------------------------------|

G|---------------------------------|---------------------------------|
D|-----------------6-------9-------|-----------------9---7---6-------|
A|-7-----------7-------------------|-7---------------------------9---|
E|---------------------------------|---------------------------------|

VERSE

G|---------------------------------|-----------------6-------9-------|
D|-----------------6-------9-------|-7-----------7-------------------|
A|-7-----------7-------------------|---------------------------------|
E|---------------------------------|---------------------------------|

G|---------------------------------|---------------------------------|
D|-----------------6-------9-------|-----------------9-------9-------|
A|-7-----------7-------------------|-7-----------7-------------------|
E|---------------------------------|---------------------------------|

G|---------------------------------|-----------------6-------9-------|
D|-----------------6-------9-------|-7-----------7-------------------|
A|-7-----------7-------------------|---------------------------------|
E|---------------------------------|---------------------------------|

G|---------------------------------|---------------------------------|
D|-9-----------9-------------------|-9-----------9-------------------|
A|-----------------9---------------|-----------------9---------------|
E|---------------------------------|---------------------------------|

CHORUS

G|---------------------------------|-----------------6-------9-------|
D|-----------------6-------9-------|-7-----------7-------------------|
A|-7-----------7-------------------|---------------------------------|
E|---------------------------------|---------------------------------|

G|---------------------------------|-----------------9---------------|
D|-----------------6-------9-------|-7-----------7-----------7-------|
A|-7-----------7-------------------|---------------------------------|
E|---------------------------------|---------------------------------|

G|---------------------------------|---------------------------------|
D|-9-----------9---7-----------7---|-6-----------6---4-----------4---|
A|---------------------------------|---------------------------------|
E|---------------------------------|---------------------------------|

G|---------------------------------|---------------------------------|
D|-----------------9------9--------|-----------------9---------------|
A|-7-----------7-------------------|-7-----------7-----------7-------|
E|---------------------------------|---------------------------------|

BRIDGE

G|---------------------------------|---------------------------------|
D|-----------------6---------------|-6-----------6-----------6-------|
A|-4-----------4-----------4-------|-----------------6---------------|
E|---------------------------------|---------------------------------|

G|---------------------------------|---------------------------------|
D|-----------------6---------------|-9-----------9-----------9-------|
A|-4-----------4-----------4-------|-----------------9---------------|
E|---------------------------------|---------------------------------|

CHORUS

G|---------------------------------|-----------------6-------9-------|
D|-----------------6-------9-------|-7-----------7-------------------|
A|-7-----------7-------------------|---------------------------------|
E|---------------------------------|---------------------------------|
[ Tab from: http://www.guitartabs.cc/tabs/b/beatles/the_honeymoon_song_btab_ver_2.html ]
G|---------------------------------|-----------------9---------------|
D|-----------------6-------9-------|-7-----------7-----------7-------|
A|-7-----------7-------------------|---------------------------------|
E|---------------------------------|---------------------------------|

G|---------------------------------|---------------------------------|
D|-9-----------9---7-----------7---|-6-----------6---4-----------4---|
A|---------------------------------|---------------------------------|
E|---------------------------------|---------------------------------|

G|---------------------------------|---------------------------------|
D|-----------------9---------------|-----------------9---------------|
A|-7-----------7-------------------|-7-----------7-----------7-------|
E|---------------------------------|---------------------------------|

GUITAR SOLO

G|---------------------------------|-----------------6-------9-------|
D|-----------------6-------9-------|-7-----------7-------------------|
A|-7-----------7-------------------|---------------------------------|
E|---------------------------------|---------------------------------|

G|---------------------------------|---------------------------------|
D|-----------------9-------9-------|-----------------9-------9-------|
A|-7-----------7-------------------|-7-----------7-------------------|
E|---------------------------------|---------------------------------|

G|---------------------------------|-----------------6-------9-------|
D|-----------------6-------9-------|-7-----------7-------------------|
A|-7-----------7-------------------|---------------------------------|
E|---------------------------------|---------------------------------|

G|---------------------------------|---------------------------------|
D|-9-----------9-------------------|-9-----------9-----------9-------|
A|-----------------9-----------9---|-----------------9---------------|
E|---------------------------------|---------------------------------|

CHORUS

G|---------------------------------|-----------------6-------9-------|
D|-----------------6-------9-------|-7----------7--------------------|
A|-7-----------7-------------------|---------------------------------|
E|---------------------------------|---------------------------------|

G|---------------------------------|-----------------9---------------|
D|-----------------6-------9-------|-7-----------7-----------7-------|
A|-7-------------------------------|---------------------------------|
E|---------------------------------|---------------------------------|

G|---------------------------------|---------------------------------|
D|-9-----------9---7-----------7---|-6-----------6---4-----------4---|
A|---------------------------------|---------------------------------|
E|---------------------------------|---------------------------------|

G|---------------------------------|---------------------------------|
D|-----------------9---------------|-----------------9-------9-------|
A|-7-----------7-----------7-------|-7-----------7-------------------|
E|---------------------------------|---------------------------------|

OUTRO

G|---------------------------------|---------------------------------|
D|-----------------9---------------|-----------------9-------9-------|
A|-7-----------7-----------7-------|-7-----------7-------------------|
E|---------------------------------|---------------------------------|

G|---------------------------------|---------------------------------|
D|-----------------9---------------|-----------------9-------9-------|
A|-7-----------7-----------7-------|-7-----------7-------------------|
E|---------------------------------|---------------------------------|

G|---------------------------------|-----------------6-------9-------|
D|-----------------6-------9-------|-7-----------7-------------------|
A|-7-----------7-------------------|---------------------------------|
E|---------------------------------|---------------------------------|

G|---------------------------------|-----------------9---------------|
D|-----------------9---7---6---4---|---------9---9-------------------|
A|-7-------------------------------|-7-------------------------------|
E|---------------------------------|---------------------------------|
Comments