Beatles - The Fool On The Hill Chords & Tabs

 

The Fool On The Hill Chords & Tabs

Beatles Chords & Tabs

Version: 4 Type: Bass Tab 0 ratings
1 star 2 stars 3 stars 4 stars 5 stars
comments

The Fool On The Hill Bass Tab

BASSEOLOGIST

"The Fool on the Hill" is a song by The Beatles. It was written and sung by Paul 
(credited to Lennon/McCartney) and recorded in 1967.

Verse
G|-------------------------------|-------------------------------|
D|-------------------------------|-------------------------------|
A|-------------------------------|-------------------------------|
E|-------------------------------|-------------------------------|

G|-------------------------------|-------------------------------|
D|-------------------------------|-------------------------------|
A|-------------------------------|-------------------------------|
E|-------------------------------|-------------------------------|

G|-------------------------------|-------------------------------|
D|-------------------------------|---------------7---------------|
A|-------------------------------|7------------------------------|
E|-------------------------------|-------------------------------|

G|-------------------------------|-------------------------------|
D|---------------9---------------|---------------7---------------|
A|5------------------------------|7------------------------------|
E|-------------------------------|-------------------------------|

Chorus:
G|-------------------------------|-------------------------------|
D|-------------------------------|-------------------------------|
A|5----5----5----5----5----5----5|5----5----5----5----5----5----5|
E|-------------------------------|-------------------------------|

G|-------------------------------|-------------------------------|
D|-------------------------------|-------------------------------|
A|3---------3---------3---------3|5---------5---------5---------5|
E|-------------------------------|-------------------------------|


Verse:
G|-------------------------------|-------------------------------|
D|-------------------------------|-------------------------------|
A|5------------------------------|----------5--------------------|
E|-------------------------------|-------------------------------|

G|-------------------------------|-------------------------------|
D|-------------------------------|-------------------------------|
A|----------7--------------------|----------5--------------------|
E|-------------------------------|-------------------------------|

G|-------------------------------|-------------------------------|
D|-------------------------------|---------------7---7-----------|
A|-------------------------------|7------------------------------|
E|-------------------------------|-------------------------------|

G|-------------------------------|-------------------------------|
D|-------------------------------|---------------7---------------|
A|-------------------------------|7------------------------------|
E|-------------------------------|-------------------------------|

Chorus:
G|-------------------------------|-------------------------------|
D|-------------------------------|-------------------------------|
A|5---------5---------5---------5|5---------5---------5---------5|
E|-------------------------------|-------------------------------|

G|-------------------------------|-------------------------------|
D|-------------------------------|-------------------------------|
A|3-------------------3----------|5---------5---------5---------5|
E|-------------------------------|-------------------------------|
[ Tab from: http://www.guitartabs.cc/tabs/b/beatles/the_fool_on_the_hill_btab_ver_4.html ]
 Flute Solo:
G|-------------------------------|-------------------------------|
D|-------------------------------|-------------------------------|
A|-------------------------------|5-------------------5----------|
E|-------------------------------|----------5-------------------5|

G|-------------------------------|-------------------------------|
D|-------------------------------|-------------------------------|
A|5-------------------5----------|5-------------------5----------|
E|----------5-------------------5|----------5-------------------5|
                                  Verse:
G|-------------------------------|-------------------------------|
D|-------------------------------|-------------------------------|
A|5-------------------5----------|7------------------------------|
E|----------5-------------------5|-------------------------------|

G|-------------------------------|-------------------------------|
D|---------------9---------------|-------------------------------|
A|-------------------------------|7------------------------------|
E|-------------------------------|-------------------------------|
 Chorus:
G|-------------------------------|-------------------------------|
D|-------------------------------|-------------------------------|
A|5---------5---------5---------5|5---------5---------5---------5|
E|-------------------------------|-------------------------------|

G|-------------------------------|-------------------------------|
D|-------------------------------|-------------------------------|
A|--------------------3----------|5---------5---------5---------5|
E|-------------------------------|-------------------------------|

  Bridge:
G|-------------------------------|-------------------------------|
D|-------------------------------|-------------------------------|
A|0h5-----------------5----------|5-------------------5----------|
E|----------5-------------------5|-----------5------------------5|
                                  Verse:
G|-------------------------------|-------------------------------|
D|-------------------------------|---------------7---------------|
A|5-------------------5----------|7------------------------------|
E|----------5-------------------5|-------------------------------|

G|-------------------------------|-------------------------------|
D|---------------9---------------|---------------7---------------|
A|5------------------------------|7------------------------------|
E|-------------------------------|-------------------------------|

  Chorus:
G|-------------------------------|-------------------------------|
D|-------------------------------|-------------------------------|
A|5---------5---------5---------5|5---------5---------5---------5|
E|-------------------------------|-------------------------------|

G|-------------------------------|-------------------------------|
D|-------------------------------|-------------------------------|
A|3-------------------3----------|5---------5---------5---------5|
E|-------------------------------|-------------------------------|
  Outro:
G|-------------------------------|-------------------------------|
D|-------------------------------|-------------------------------|
A|5------------------------------|5-------------------5----------|
E|-------------------------------|----------5-------------------5|

G|-------------------------------|-------------------------------|
D|-------------------------------|-------------------------------|
A|5-------------------5----------|5-------------------5----------|
E|----------5-------------------5|----------5-------------------5|
Comments