Beatles - The End Chords & Tabs

 

The End Chords & Tabs

Beatles Chords & Tabs

Version: 4 Type: Tab

The End Tab

   
Standard Tuning

INTRO                                                          Drum fill
e-|--------10b11-----------12b13-------------------------------------------|
B-|-10b11--13b14----12b13--15b16-------------------------------------------|
G-|-12b13-----------14b15--------------------------------------------------|
D-|------------------------------------------------------0-----------------|
A-|--------------------------------0--4-5-6-7-8--9---5-3-0-----------------|
E-|-----------------------------------5-7-8-9-10-11------------------------|

--------10b11-----------12b13------------------------------|
-10b11--13b14----12b13--15b16------------------------------|
-12b13-----------14b15-------------------------------------|
--------------------------------------------------0-----0--|
--------------------------------0--4-5-6-7-8--9-----3---0--|
-----------------------------------5-7-8-9-10-11-----------|

(Drum Solo Here)

BRIDGE INTO GUITAR SOLO
                             Repeat 4X
e-|---------------------|------------------|
B-|-5---5-------7---7---|--5---5-----7---7-|
G-|-6---6-------5---5---|--6---6-----5---5-|
D-|-5---5h7-----7---7---|--5---5-----7---7-|
A-|-7---7-------5---5---|--7---7-----5---5-|
E-|-5---5---------------|--5---5-----------|

GUITAR SOLO

e-|-------------5------5--------------------------|--------------------------|
B-|----5--5--5--5---5-----8-----------------------|----10----10--13b14r13----|
G-|--7-----------------------75-----5p7--5-------|-12----12------------------|
D-|-------------------------------7----------7p5--|--------------------------|
A-|-----------------------------------------------|--------------------------|
E-|-----------------------------------------------|--------------------------|

-------------------------------------|---------------------------------------|
-10h13p10-----10----10----10---------|-12-12---12-12-----x-12----12-12----x--|
----------12-----12----9----97--5---|-12-12---12-12h14--x-12h14-12-12h14-x---|
-----------------------------------7-|-12-12---12-12h14--x-12h14-12-12h14-x--|
-------------------------------------|---------------------------------------|
-------------------------------------|---------------------------------------|
[ Tab from: http://www.guitartabs.cc/tabs/b/beatles/the_end_tab_ver_4.html ]
-----------------------|-8--8--8--8------------------------5-----5-8/10------|(vib)
-12-14p12--12-------5--|-------------5-----------5------5-----8--------------|
-12-14p12--12--95--5--|----------------5-----5----7/8------------------------|
-12-14p12-----------5--|-------------------5---------------------------------|
-----------------------|-----------------------------------------------------|
-----------------------|-----------------------------------------------------|

-|--------------------------------------------------------|-----------------|
-|---5--5-----5-5--5------5--5----5--7b8r7---------8(vib)-|-----------------|
-|-5-5--5-----5-5--5------5--5----5--7b8r7--5h7p5---------|-----------------|
-|-7-------7---------7--7------7--------------------------|--------------0--|
-|--------------------------------------------------------|-------0--3------|
-|--------------------------------------------------------|-0--3------------|

-----------------------------------|--------------------------------------|
-----------------------------------|--------------------------------------|
-----------------------------------|---------5-5--5-5------------5-5--5-5-|
------0------0-----2p0--0-----0----|-5-5--5------------5-5--5-5-----------|
--3-------3-----3----------3-----0-|--------------------------------------|
-----------------------------------|--------------------------------------|

---------------|------------------15b16r15-----------------|---------------|
---------------|--------------13-------------13h15p13(vib)-|---------------|
---------------|-9/12--12/14-------------------------------|----5--7p5-----|
-52-2p0-------|-------------------------------------------|-7--5--7p5------|
---------3p0-0-|-------------------------------------------|-7-------------|
---------------|-------------------------------------------|---------------|


  Repeat 10X
-|----------|------------------|
-|-7p5--7p5-|-7---7(vib)---5---|
-|-7p5--7p5-|-7---7(vib)---6---|
-|-7p5--7p5-|-7---7(vib)---5---|
-|----------|------------------|
-|----------|------------------|

THERE IF YOU WANT THE OUTRO BUY YOURSELF AN ORCHESTRA AND A PIANO, AND THEN I MIGHT TAB 
OUT FOR YOU... THAT'S ALL FOLKS~~~

Notation Legend

b = bend
r = release
(vib) = Vibrato
/ = slide up
 = slide down
h = hammer
p = pull