Beatles - The End Chords & Tabs

 

The End Chords & Tabs

Beatles Chords & Tabs

Version: 4 Type: Bass Tab 0 ratings
1 star 2 stars 3 stars 4 stars 5 stars
comments

The End Bass Tab

   
-------------------------------------------------------------------------------
			     THE END - THE BEATLES
-------------------------------------------------------------------------------

Tabbed By : STEFANO REDAELLI
e-mail: rrr3da@hotmail.com

Tuning: STANDARD

*** please visit facebook.com/turniptop and put a like on it ;) ***



G|--------------|-------------------------|
D|--------------|-------------------------|
A|---5-----7----|----3-4-6-7-8-9----5-3---|
E|-5-----7------|-5--------------------5--|


drums here

[ Tab from: http://www.guitartabs.cc/tabs/b/beatles/the_end_btab_ver_4.html ]
G|--------------|-------------------------|
D|--------------|-------------------------|
A|---5-----7----|----3-4-6-7-8-9----5-3---|
E|-5-----7------|-5--------------------5--|


ringo's drums solo
G|-----------------|-----------------|
D|-----------------|-----------------|
A|-----------3---3-|-5-5-5-5---5-5-3-|
E|-5-5-5-5-5---5---|-----------------|


in this last part you can do this variation:

G|-----------------|-----------------|
D|-----------------|-----------------|
A|---------------3-|-5-5-5-5---5-5-3-|
E|-5-5-5-5-5-3-5---|-----------------|

*** please visit facebook.com/turniptop and put a like on it ;) ***


| /  slide up
| \  slide down
| h  hammer-on
| p  pull-off
| ~  vibrato
| +  harmonic
| x  Mute note
===============================================================================
Comments