Beatles - The End Chords & Tabs

 

The End Chords & Tabs

Beatles Chords & Tabs

Version: 2 Type: Bass Tab

The End Bass Tab

"The End"
        by The Beatles (Abbey Road) 1969


G------------------------------------------------------------------|
D------------------------------------------------------------------|
A-------------5-----------7----------0--------0----2--3--4--5--6---|
E---------5-----------7--------------------------------------------|
[ Tab from: http://www.guitartabs.cc/tabs/b/beatles/the_end_btab_ver_2.html ]
G-----------------------|
D-----------------------|
A-----5-----3----0------|    X2
E-----------------------|                   Drum Solo


G----------------------------------------------------|
D----------------------------------------------------|
A-------------------------3---5---5---5-5--3---------| X13 for guitar solos
E--------5---5----5-5--------------------------------|

G----------------|
D----------------|
A----------------|    Play note at end of guitar solo
E--------5-------|


 I have not figured out the last part yet but the rest I'm sure it is correct.  Hope you 
it.