Beatles - The Ballad Of John And Yoko Chords & Tabs

 

The Ballad Of John And Yoko Chords & Tabs

Beatles Chords & Tabs

Version: 3 Type: Bass Tab 0 ratings
1 star 2 stars 3 stars 4 stars 5 stars
comments

The Ballad Of John And Yoko Bass Tab

-------------------------------------------------------------------------------
			     The Ballad of John and Yoko - The Beatles
-------------------------------------------------------------------------------

Tabbed By : Wack Strings (Brum)
e-mail: bboy_44@hotmail.com

Tuning: Standard (EADG)

*-let ring

Comments: Repeat the songs as much as they the riffs as much as they are needed.

Intro/Verse
G|--------------------------------------------------------------------------------|
D|--------------------------------------------------------------------------------|
A|-------2--4-2-------------------------------------------------------------------|
E|-0--4---------------------------------------------------------------------------|

Chorus
G|--------------------------------------------------------------------------------|
D|--------2--4-2------------------------------------------------------------------|
A|--0--4--------------------------------------------------------------------------|
E|--------------------------------------------------------------------------------|
[ Tab from: http://www.guitartabs.cc/tabs/b/beatles/the_ballad_of_john_and_yoko_btab_ver_3.html ]
Interlude
G|---------------------------------------------------------------------------------|
D|---1--4--6-4---------------------------------------------------------------------|
A|-2-------------------------------------------------------------------------------|
E|---------------------------------------------------------------------------------|

Outro
G|--------------------------------------------------------------------------------|
D|----4-------4-------------------------------------------------------------------|
A|-2----2--2----------------------------------------------------------------------|
E|--------------------------------------------------------------------------------|

G|--------------------------------------------------------------------------------|
D|--------------------------------------------------------------------------------|
A|-----2-2-2----------------------------------------------------------------------|
E|-0------------------------------------------------------------------------------|

End on
G|-------------------------------------------------------------------------------|
D|-------------------------------------------------------------------------------|
A|-------------------------------------------------------------------------------|
E|-0*----------------------------------------------------------------------------|
Comments