Beatles - Thats All Right Mama Chords & Tabs

 

Thats All Right Mama Chords & Tabs

Beatles Chords & Tabs

Version: 2 Type: Bass Tab 0 ratings
1 star 2 stars 3 stars 4 stars 5 stars
comments

Thats All Right Mama Bass Tab

THATíS ALRIGHT (MAMA)

By Arthur Crudup
From The Beatles Live At The BBC

INTRO
  t=216
G|---------------------------------|---------------------------------|
D|---------------------------------|-----------------4-------6-------|
A|---------------------------------|---------7-----------------------|
E|---------------------------------|---------------------------------|

G|---------------------------------|---------------------------------|
D|-7-----------7-------------------|-7-----------7-----------6-------|
A|-----------------7-----------7---|-----------------7---------------|
E|---------------------------------|---------------------------------|

G|---------------------------------|---------------------------------|
D|-7-----------7-------------------|-7---------------4-------6-------|
A|-----------------7-----------7---|---------7-----------------------|
E|---------------------------------|---------------------------------|

VERSE

G|---------------------------------|---------------------------------|
D|-7-----------7-------------------|-7-----------7-----------6-------|
A|-----------------7-----------7---|-----------------7---------------|
E|---------------------------------|---------------------------------|

G|---------------------------------|---------------------------------|
D|-7-----------7-------------------|-7-----------7-----------6-------|
A|-----------------7-----------7---|-----------------7---------------|
E|---------------------------------|---------------------------------|

G|---------------------------------|---------------------------------|
D|-7-----------7-------------------|-7-----------7-------------------|
A|-----------------7-----------7---|-----------------7-----------7---|
E|---------------------------------|---------------------------------|

G|---------------------------------|---------------------------------|
D|-7-----------7-------------------|-7-----------7-------------------|
A|-----------------7-----------7---|-----------------9-------7-------|
E|---------------------------------|---------------------------------|

G|---------------------------------|---------------------------------|
D|---------------------------------|---------------------------------|
A|-5-------------------------------|-5-------------------------------|
E|-----------------5---------------|-----------------5---------------|

G|---------------------------------|---------------------------------|
D|---------------------------------|---------------------------------|
A|-5-------------------------------|-5-----------------------5-------|
E|-----------------5---------------|-----------------5---------------|

G|---------------------------------|---------------------------------|
D|---------------------------------|---------------------------------|
A|-7-------------------------------|-7-------------------------------|
E|-----------------7---------------|-----------------7---------------|

G|---------------------------------|---------------------------------|
D|---------------------------------|---------------------------------|
A|-7-------------------------------|-7-----------------------7-------|
E|-----------------7---------------|-----------------7---------------|

G|---------------------------------|---------------------------------|
D|-7-----------7-------------------|-7-----------7-----------6-------|
A|-----------------7-----------7---|-----------------7---------------|
E|---------------------------------|---------------------------------|

G|---------------------------------|---------------------------------|
D|-7-----------7-------------------|-7---------------4-------6-------|
A|-----------------7-----------7---|---------7-----------------------|
E|---------------------------------|---------------------------------|

VERSE

G|---------------------------------|---------------------------------|
D|-7-----------7-------------------|-7-----------7-----------6-------|
A|-----------------7-----------7---|-----------------7---------------|
E|---------------------------------|---------------------------------|

G|---------------------------------|---------------------------------|
D|-7-----------7-------------------|-7-----------7-----------6-------|
A|-----------------7-----------7---|-----------------7---------------|
E|---------------------------------|---------------------------------|

G|---------------------------------|---------------------------------|
D|-7-----------7-------------------|-7-----------7-------------------|
A|-----------------7-----------7---|-----------------7-----------7---|
E|---------------------------------|---------------------------------|

G|---------------------------------|---------------------------------|
D|-7-----------7-------------------|-7-------------------------------|
A|-----------------7-----------7---|-------------7-------------------|
E|---------------------------------|-----------------5-------7-------|

G|---------------------------------|---------------------------------|
D|---------------------------------|---------------------------------|
A|-5-------------------------------|-5-------------------------------|
E|-----------------5---------------|-----------------5---------------|

G|---------------------------------|---------------------------------|
D|---------------------------------|---------------------------------|
A|-5-------------------------------|-5-----------------------5-------|
E|-----------------5---------------|-----------------5---------------|

G|---------------------------------|---------------------------------|
D|---------------------------------|---------------------------------|
A|-7-------------------------------|-7-------------------------------|
E|-----------------7---------------|-----------------7---------------|

G|---------------------------------|---------------------------------|
D|---------------------------------|---------------------------------|
A|-7-------------------------------|-7-----------------------7-------|
E|-----------------7---------------|-----------------7---------------|

G|---------------------------------|---------------------------------|
D|-7-----------7-------------------|-7-----------7-----------6-------|
A|-----------------7-----------7---|-----------------7---------------|
E|---------------------------------|---------------------------------|

G|---------------------------------|---------------------------------|
D|-7-----------7-------------------|-7---------------4-------6-------|
A|-----------------7-----------7---|---------7-----------------------|
E|---------------------------------|---------------------------------|

GUITAR SOLO

G|---------------------------------|---------------------------------|
D|---------------------------------|-7-------5-------4---------------|
A|---------4-------7-------4-------|-------------------------7-------|
E|-5-------------------------------|---------------------------------|

G|---------------------------------|---------------------------------|
D|---------------------------------|-7-------5-------4---------------|
A|---------4-------7-------4-------|-------------------------7-------|
E|-5-------------------------------|---------------------------------|

G|---------------------------------|---------------------------------|
D|---------------------------------|-7-------5-------4---------------|
A|---------4-------7-------4-------|---------------------------------|
E|-5-------------------------------|-------------------------5-------|

G|---------------------------------|---------------------------------|
D|---------7---------------7-------|---------7---------------7-------|
A|---------------------------------|---------------------------------|
E|---------------------------------|---------------------------------|

G|---------------------------------|-7-------5-------4---------------|
D|---------4-------7-------4-------|-------------------------7-------|
A|-5-------------------------------|---------------------------------|
E|---------------------------------|---------------------------------|

G|---------------------------------|---------------------------------|
D|---------4-------7-------4-------|---------------------------------|
A|-5-------------------------------|-----------------4-------5-------|
E|---------------------------------|-5-------7-----------------------|

G|---------------------------------|---------------------------------|
D|-------------6---9-------6-------|---------------------------------|
A|-7-------------------------------|-7-------7-----------------------|
E|---------------------------------|-----------------7-------7-------|

G|---------------------------------|---------------------------------|
D|---------------------------------|---------------------------------|
A|-7-------7-----------------------|-7-------5-------4---------------|
E|-----------------7-------7-------|-------------------------7-------|

G|---------------------------------|---------------------------------|
D|-7-----------7-------------------|-7-----------7-----------6-------|
A|-----------------7-----------7---|-----------------7---------------|
E|---------------------------------|---------------------------------|

G|---------------------------------|---------------------------------|
D|-7-----------7-------------------|-7---------------4-------6-------|
A|-----------------7-----------7---|---------7-----------------------|
E|---------------------------------|---------------------------------|

VERSE

G|---------------------------------|---------------------------------|
D|-7-----------7-------------------|-7-----------------------6-------|
A|-----------------7-----------7---|-----------------7---------------|
E|---------------------------------|---------------------------------|

G|---------------------------------|---------------------------------|
D|-7-----------7-------------------|-7-----------------------6-------|
A|-----------------7-----------7---|-----------------7---------------|
E|---------------------------------|---------------------------------|

G|---------------------------------|---------------------------------|
D|-7-----------7-------------------|-7-----------7-------------------|
A|-----------------7-----------7---|-----------------7-----------7---|
E|---------------------------------|---------------------------------|

G|---------------------------------|---------------------------------|
D|-7-----------7-------------------|-7-------5-------4---------------|
A|-----------------7-----------7---|-------------------------7-------|
E|---------------------------------|---------------------------------|
[ Tab from: http://www.guitartabs.cc/tabs/b/beatles/thats_all_right_mama_btab_ver_2.html ]
G|---------------------------------|---------------------------------|
D|---------------------------------|---------------------------------|
A|-5-------------------------------|-5-----------5-------------------|
E|-----------------5---------------|-----------------5---------------|

G|---------------------------------|---------------------------------|
D|---------------------------------|---------------------------------|
A|-5-----------5-------------------|-5-----------5-----------5-------|
E|-----------------5---------------|-----------------5---------------|

G|---------------------------------|---------------------------------|
D|---------------------------------|---------------------------------|
A|-7-------------------------------|-7-------------------------------|
E|-----------------7---------------|-----------------7---------------|

G|---------------------------------|---------------------------------|
D|---------------------------------|---------------------------------|
A|-7-------------------------------|-7-----------------------7-------|
E|-----------------7---------------|-----------------7---------------|

G|---------------------------------|---------------------------------|
D|-7-----------7-------------------|-7-----------7-----------6-------|
A|-----------------7-----------7---|-----------------7---------------|
E|---------------------------------|---------------------------------|

G|---------------------------------|---------------------------------|
D|-7-----------7-------------------|-7---------------4-------6-------|
A|-----------------7-----------7---|---------7-----------------------|
E|---------------------------------|---------------------------------|

VERSE

G|---------------------------------|---------------------------------|
D|-7-----------7-------------------|-7-----------7-----------6-------|
A|-----------------7-----------7---|-----------------7---------------|
E|---------------------------------|---------------------------------|

G|---------------------------------|---------------------------------|
D|-7-----------7-------------------|-7-----------------------6-------|
A|-----------------7-----------7---|-----------------7---------------|
E|---------------------------------|---------------------------------|

G|---------------------------------|---------------------------------|
D|-7-----------7-------------------|-7-----------7-------------------|
A|-----------------7-----------7---|-----------------7-----------7---|
E|---------------------------------|---------------------------------|

G|---------------------------------|---------------------------------|
D|-7-------5-------4---------------|---------------------------------|
A|-------------------------7-------|---------4-------7-------4-------|
E|---------------------------------|-5-------------------------------|

G|---------------------------------|---------------------------------|
D|---------------------------------|---------------------------------|
A|-5-------------------------------|-5-----------5-------------------|
E|-----------------5---------------|-----------------5---------------|

G|---------------------------------|---------------------------------|
D|---------------------------------|---------------------------------|
A|-5-----------5-------------------|-5-----------------------5-------|
E|-----------------5---------------|-----------------5---------------|

G|---------------------------------|---------------------------------|
D|---------------------------------|---------------------------------|
A|-7-------------------------------|-7-------------------------------|
E|-----------------7---------------|-----------------7---------------|

G|---------------------------------|---------------------------------|
D|---------------------------------|---------------------------------|
A|-7-------------------------------|-7-----------------------7-------|
E|-----------------7---------------|-----------------7---------------|

G|---------------------------------|---------------------------------|
D|-7-----------7-------------------|-7-----------7-----------6-------|
A|-----------------7-----------7---|-----------------7---------------|
E|---------------------------------|---------------------------------|

G|---------------------------------|---------------------------------|
D|-7-----------7-------------------|-7-------5-------4---------------|
A|-----------------7-----------7---|-------------------------7-------|
E|---------------------------------|---------------------------------|

GUITAR SOLO

G|---------------------------------|---------------------------------|
D|---------------------------------|-7-------5-------4---------------|
A|---------4-------7-------4-------|-------------------------7-------|
E|-5-------------------------------|---------------------------------|

G|---------------------------------|---------------------------------|
D|---------------------------------|-7-------5-------4---------------|
A|---------4-------7-------4-------|-------------------------7-------|
E|-5-------------------------------|---------------------------------|

G|---------------------------------|---------------------------------|
D|---------------------------------|-7-------5-------4---------------|
A|---------4-------7-------4-------|-------------------------7-------|
E|-5-------------------------------|---------------------------------|

G|---------------------------------|---------------------------------|
D|---------------------------------|-4-------4-------2-------1-------|
A|-----------------4-------7-------|---------------------------------|
E|-5-------------------------------|---------------------------------|

G|---------------------------------|---------------------------------|
D|-----------------4-------4-------|-7-------7-------4-------4-------|
A|-5-------5-----------------------|---------------------------------|
E|---------------------------------|---------------------------------|

G|---------------------------------|---------------------------------|
D|---------4-------7-------4-------|---------4-------7-------4-------|
A|-5-------------------------------|-5-------------------------------|
E|---------------------------------|---------------------------------|

G|---------------------------------|---------------------------------|
D|-----------------6-------6-------|-9-------9---------------9-------|
A|-7-------7-----------------------|-----------------9---------------|
E|---------------------------------|---------------------------------|

G|---------9-------7-------6-------|---------------------------------|
D|---------------------------------|-7-------7---------------7-------|
A|-7-------------------------------|-----------------7---------------|
E|---------------------------------|---------------------------------|

G|---------------------------------|---------------------------------|
D|-7-----------7-------------------|-7-----------7-----------6-------|
A|-----------------7-----------7---|-----------------7---------------|
E|---------------------------------|---------------------------------|

G|---------------------------------|---------------------------------|
D|-7-----------7-------------------|-7---------------4-------6-------|
A|-----------------7-----------7---|---------7-----------------------|
E|---------------------------------|---------------------------------|

VERSE

G|---------------------------------|---------------------------------|
D|-7-----------7-------------------|-7-----------7-----------6-------|
A|-----------------7-----------7---|-----------------7---------------|
E|---------------------------------|---------------------------------|

G|---------------------------------|---------------------------------|
D|-7-----------7-------------------|-7-----------7-----------6-------|
A|-----------------7-----------7---|-----------------7---------------|
E|---------------------------------|---------------------------------|

G|---------------------------------|---------------------------------|
D|-7-----------7-------------------|---------------------------------|
A|-----------------7-----------7---|---------4-------7-------4-------|
E|---------------------------------|-5-------------------------------|

G|---------------------------------|---------------------------------|
D|-----------------7---------------|-----------------7---------------|
A|-5-------------------------------|-5-------------------------------|
E|---------------------------------|---------------------------------|

G|---------------------------------|---------------------------------|
D|-----------------7---------------|-----------------7---------------|
A|-5-------------------------------|-5-----------------------5-------|
E|---------------------------------|---------------------------------|

G|---------------------------------|---------------------------------|
D|-----------------9---------------|-----------------9---------------|
A|-7-------------------------------|-7-------------------------------|
E|---------------------------------|---------------------------------|

G|---------------------------------|---------------------------------|
D|-----------------9---------------|-----------------9---------------|
A|-7-------------------------------|-7-----------------------7-------|
E|---------------------------------|---------------------------------|

G|---------------------------------|---------------------------------|
D|-7-----------7-------------------|-7-----------7-----------6-------|
A|-----------------7-----------7---|-----------------7---------------|
E|---------------------------------|---------------------------------|

G|---------------------------------|---------------------------------|
D|-7-----------7-------------------|-7-------7-------7---------------|
A|-----------------7-----------7---|-------------------------7-------|
E|---------------------------------|---------------------------------|

OUTRO

G|---------------------------------|---------------------------------|
D|-----------------9---------------|-----------------9---------------|
A|-7-------------------------------|-7-------------------------------|
E|---------------------------------|---------------------------------|

G|---------------------------------|---------------------------------|
D|-----------------9---------------|-----------------9---------------|
A|-7-------------------------------|-7-----------------------7-------|
E|---------------------------------|---------------------------------|

G|---------------------------------|---------------------------------|
D|-7-----------7-------------------|-7-----------7-------------------|
A|-----------------7-----------7---|-----------------7-----------7---|
E|---------------------------------|---------------------------------|

G|---------------------------------|---------------------------------|
D|-7-------5-------4---------------|---------------------------------|
A|-------------------------7-------|---------------------------------|
E|---------------------------------|-5---------------5---------------|
Comments