Beatles - Thatll Be The Day Chords & Tabs

 

Thatll Be The Day Chords & Tabs

Beatles Chords & Tabs

Version: 2 Type: Bass Tab 0 ratings
1 star 2 stars 3 stars 4 stars 5 stars
comments

Thatll Be The Day Bass Tab

THATíLL BE THE DAY

INTRO

G|---------------------------------|---------------------------------|
D|---------------------------------|---------------------------------|
A|---------------------------------|---------7---7-------------------|
E|---------------------------------|---------------------------------|

VERSE

G|---------------------------------|---------------------------------|
D|-----------------7---------------|---------------------------------|
A|-5-------------------------------|-5-------------------------------|
E|---------------------------------|-----------------5---------------|

G|---------------------------------|---------------------------------|
D|-7-------------------------------|-7-------------------------------|
A|-----------------7---------------|-----------------7---------------|
E|---------------------------------|---------------------------------|

G|---------------------------------|---------------------------------|
D|-----------------7---------------|-----------------7---------------|
A|-5-------------------------------|-5-------------------------------|
E|---------------------------------|---------------------------------|

G|---------------------------------|---------------------------------|
D|---------------------------------|-----------------7---------------|
A|---------------------------------|-----7---7---7-------------------|
E|-5-------------------------------|---------------------------------|

BRIDGE

G|---------------------------------|---------------------------------|
D|-----------------7---------------|---------------------------------|
A|-5-------------------------------|-----------------7---------------|
E|---------------------------------|-5-------------------------------|

G|---------------------------------|---------------------------------|
D|-----------------7---------------|---------------------------------|
A|-5-------------------------------|-----------------7---------------|
E|---------------------------------|-5-------------------------------|

G|---------------------------------|---------------------------------|
D|-----------------7---------------|---------------------------------|
A|-5-------------------------------|-----------------7---------------|
E|---------------------------------|-5-------------------------------|

G|---------------------------------|---------------------------------|
D|---------------------------------|---------6-------9---------------|
A|---------6-------9---------------|-7-----------------------7-------|
E|-7-----------------------7-------|---------------------------------|

VERSE

G|---------------------------------|---------------------------------|
D|-----------------7---------------|---------------------------------|
A|-5-------------------------------|-5-------------------------------|
E|---------------------------------|-----------------5---------------|

G|---------------------------------|---------------------------------|
D|-7-------------------------------|-7-------------------------------|
A|-----------------7---------------|-----------------7---------------|
E|---------------------------------|---------------------------------|

G|---------------------------------|---------------------------------|
D|-----------------7---------------|-----------------7---------------|
A|-5-------------------------------|-5-------------------------------|
E|---------------------------------|---------------------------------|

G|---------------------------------|---------------------------------|
D|---------------------------------|-----------------7---------------|
A|---------------------------------|-----7---7---7-------------------|
E|-5-------------------------------|---------------------------------|

GUITAR SOLO

G|---------------------------------|---------------------------------|
D|-----------------7---------------|-7---------------7---------------|
A|---------------------------------|-------------------------7-------|
E|-5-------------------------------|---------------------------------|

G|---------------------------------|---------------------------------|
D|-7---------------7---------------|-7---------------7---------------|
A|---------7---------------7-------|---------7---------------7-------|
E|---------------------------------|---------------------------------|

G|-------------------------4-------|-------------------------4-------|
D|---------4-------7---------------|---------4-------7---------------|
A|-5-------------------------------|-5-------------------------------|
E|---------------------------------|---------------------------------|

G|---------------------------------|---------------------------------|
D|-----------------7---------------|-----------------7---------------|
A|---------------------------------|---------------------------------|
E|-5-------------------------------|-5-------------------------------|
[ Tab from: http://www.guitartabs.cc/tabs/b/beatles/thatll_be_the_day_btab_ver_2.html ]
G|---------------------------------|---------------------------------|
D|-----------------9-------9-------|-----------------7-------7-------|
A|-7-------7-----------------------|-5-------5-----------------------|
E|---------------------------------|---------------------------------|

G|---------------------------------|---------------------------------|
D|-----------------7---------------|---------------------------------|
A|---------------------------------|---------7---7-------------------|
E|-5-------------------------------|-5-------------------------------|

VERSE

G|---------------------------------|---------------------------------|
D|-----------------7---------------|---------------------------------|
A|-5-------------------------------|-5-------------------------------|
E|---------------------------------|-----------------5---------------|

G|---------------------------------|---------------------------------|
D|-7-------------------------------|-7-------------------------------|
A|-----------------7---------------|-----------------7---------------|
E|---------------------------------|---------------------------------|

G|---------------------------------|---------------------------------|
D|-----------------7---------------|-----------------7---------------|
A|-5-------------------------------|-5-------------------------------|
E|---------------------------------|---------------------------------|

G|---------------------------------|---------------------------------|
D|---------------------------------|-----------------7---------------|
A|---------------------------------|-----7---7---7-------------------|
E|-5-------------------------------|---------------------------------|

BRIDGE

G|---------------------------------|---------------------------------|
D|-----------------7---------------|---------------------------------|
A|-5-------------------------------|-----------------7---------------|
E|---------------------------------|-5-------------------------------|

G|---------------------------------|---------------------------------|
D|-----------------7---------------|---------------------------------|
A|-5-------------------------------|-----------------7---------------|
E|---------------------------------|-5-------------------------------|

G|---------------------------------|---------------------------------|
D|-----------------7---------------|---------------------------------|
A|-5-------------------------------|-----------------7---------------|
E|---------------------------------|-5-------------------------------|

G|---------------------------------|---------------------------------|
D|---------------------------------|---------6-------9---------------|
A|---------6-------9---------------|-7-----------------------7-------|
E|-7-----------------------7-------|---------------------------------|

VERSE

G|---------------------------------|---------------------------------|
D|-----------------7---------------|---------------------------------|
A|-5-------------------------------|-5-------------------------------|
E|---------------------------------|-----------------5---------------|

G|---------------------------------|---------------------------------|
D|-7-------------------------------|---------------------------------|
A|-----------------7---------------|---------------------------------|
E|---------------------------------|-5----5----5-----5----5----5-----|

G|---------------------------------|---------------------------------|
D|-----------------7---------------|-----------------7---------------|
A|-5-------------------------------|-5-------------------------------|
E|---------------------------------|---------------------------------|

G|---------------------------------|---------------------------------|
D|---------------------------------|-----------------7---------------|
A|---------------------------------|-----7---7---7-------------------|
E|-5-------------------------------|---------------------------------|

OUTRO

G|---------------------------------|---------------------------------|
D|-----------------7---------------|-----------------7---------------|
A|-5-------------------------------|-5-------------------------------|
E|---------------------------------|---------------------------------|

G|---------------------------------|---------------------------------|
D|---------------------------------|---------------------------------|
A|-----------------7---------------|-----------------7---------------|
E|-5-------------------------------|-5-------------------------------|

G|---------------------------------|---------------------------------|
D|-----------------7---------------|-----------------7---------------|
A|-5-------------------------------|-5-------------------------------|
E|---------------------------------|---------------------------------|

G|---------------------------------|---------------------------------|
D|---------------------------------|---------------------------------|
A|-----------------7---------------|---------------------------------|
E|-5-------------------------------|-5---5---5---5-----------5-------|
Comments