Beatles - That Means A Lot Chords & Tabs

 

That Means A Lot Chords & Tabs

Beatles Chords & Tabs

Version: 1 Type: Tab 0 ratings
1 star 2 stars 3 stars 4 stars 5 stars
comments

That Means A Lot Tab

   
THAT MEANS A LOT

Take 1, recorded on February 20, 1965

Written by Paul McCartney


    INTRO

    lead guitar
  e|---------------------------------|---------------------------------|
  B|---------------------------------|------------/7-------5---4-------|
  G|---------------------------------|-----------------------------6---|
  D|---------------------------------|---------------------------------|
  A|---------------------------------|---------------------------------|
  E|---------------------------------|---------------------------------|
    bass piano
  G|---------------------------------|---------------------------------|
  D|---------------------------------|---------------------------------|
  A|---------------------------------|---------------------------------|
  E|---------------------------------|---------------------------------|
  B|---------------------------------|-------------0-------------------|
    bass
  G|---------------------------------|---------------------------------|
  D|---------------------------------|---------------------------------|
  A|---------------------------------|---------------------------------|
  E|---------------------------------|---------------------------------|



     E
  e|---------------------------------|---------------------------------|
  B|-5-------5-----------------------|---------5---7-------5---4-------|
  G|---------4-----------------------|---------4-------------------6---|
  D|---------6-----------------------|---------6-----------------------|
  A|---------7-----------------------|---------7-----------------------|
  E|---------------------------------|---------------------------------|
                                                                   A
  G|---------------------------------|---------------------------------|
  D|---------------------------------|---------------------------------|
  A|---------------------------------|---------------------------------|
  E|---------------------------------|---------------------------------|
  B|-0-----------0---0---------------|-0-----------0---0---------------|

  G|---------------------------------|---------------------------------|
  D|-----------------9---------------|-----------------9---------------|
  A|-7-----------7-------------------|-7-----------7-------------------|
  E|---------------------------------|---------------------------------|


    VERSE

     E                                 Am6
  e|---------------------------------|---------------------------------|
  B|-5-------5-----------5-------5---|---------5-----------5-------5---|
  G|---------4-----------4-------4---|---------5-----------5-------5---|
  D|---------6-----------6-------6---|---------4-----------4-------4---|
  A|---------7-----------7-------7---|---------0-----------0-------0---|
  E|---------------------------------|---------------------------------|
     friend          says  that  your  love    wonít   mean    a
  G|---------------------------------|---------------------------------|
  D|---------------------------------|---------------------------------|
  A|---------------------------------|-0-----------0---0---------------|
  E|-0-----------0---0---------------|---------------------------------|
  B|---------------------------------|---------------------------------|

  G|---------------------------------|---------------------------------|
  D|---------------------------------|-7-----------7-------------------|
  A|-7-----------7---7---------------|-----------------7---------------|
  E|---------------------------------|---------------------------------|



     E
  e|---------------------------------|---------------------------------|
  B|---------5-----------5-------5---|---------------------5-------5---|
  G|---------4-----------4-------4---|---------------------4-------4---|
  D|---------6-----------6-------6---|---------------------6-------6---|
  A|---------7-----------7-------7---|---------------------7-------7---|
  E|---------------------------------|---------------------------------|
     lot                                                           But
  G|---------------------------------|---------------------------------|
  D|---------------------------------|---------------------------------|
  A|---------------------------------|---------------------------------|
  E|-0-----------0---0---------------|-0-----------0---0---------------|
  B|---------------------------------|---------------------------------|

  G|---------------------------------|---------------------------------|
  D|-----------------9---------------|-----------------9---------------|
  A|-7-----------7-------------------|-7-----------7-------------------|
  E|---------------------------------|---------------------------------|



                                       Am6
  e|---------------------------------|---------------------------------|
  B|---------5-----------5-------5---|---------5-----------5-------5---|
  G|---------4-----------4-------4---|---------5-----------5-------5---|
  D|---------6-----------6-------6---|---------4-----------4-------4---|
  A|---------7-----------7-------7---|---------0-----------0-------0---|
  E|---------------------------------|---------------------------------|
     you             know  that  your  love        is  all     youíve
  G|---------------------------------|---------------------------------|
  D|---------------------------------|---------------------------------|
  A|---------------------------------|-0-----------0---0---------------|
  E|-0-----------0---0---------------|---------------------------------|
  B|---------------------------------|---------------------------------|

  G|---------------------------------|---------------------------------|
  D|-----------------9---------------|-7-----------7-------------------|
  A|-7-----------7-------------------|-----------------7---------------|
  E|---------------------------------|---------------------------------|



     F#m7                              B7
  e|---------2-----------2-------2---|---------2-----------2-------2---|
  B|---------2-----------2-------2---|---------4-----------4-------4---|
  G|---------2-----------2-------2---|---------2-----------2-------2---|
  D|---------2-----------2-------2---|---------4-----------4-------4---|
  A|---------------------------------|---------------------------------|
  E|---------------------------------|---------------------------------|
     got                                                           At
  G|---------------------------------|---------------------------------|
  D|---------------------------------|---------------------------------|
  A|---------------------------------|-2-----------2---2---------------|
  E|-2-----------2---2---------------|---------------------------------|
  B|---------------------------------|---------------------------------|

  G|---------------------------------|---------------------------------|
  D|---------------------------------|-9-----------9---9---------------|
  A|-9-----------9---9-------9-------|---------------------------------|
  E|---------------------------------|---------------------------------|



     G                                 A
  e|---------3-----------3-------3---|---------0-----------0-------0---|
  B|---------3-----------3-------3---|---------2-----------2-------2---|
  G|---------4-----------4-------4---|---------2-----------2-------2---|
  D|---------5-----------5-------5---|---------2-----------2-------2---|
  A|---------------------------------|---------------------------------|
  E|---------------------------------|---------------------------------|
     times           things are  so    fine                     And at
  G|---------------------------------|---------------------------------|
  D|---------------------------------|---------------------------------|
  A|---------------------------------|---------------------------------|
  E|-3-----------3---3---------------|-5-----------5---5---------------|
  B|---------------------------------|---------------------------------|

  G|---------------------------------|---------------------------------|
  D|---------------------------------|---------------------------------|
  A|---------------------------------|---------------------------------|
  E|-3-----------3---3---------------|-5-----------5---5---------------|



     G               F#                B7
  e|---------3---------------2-------|---------2-----------2-------2---|
  B|---------3---------------2-------|---------4-----------4-------4---|
  G|---------4---------------3-------|---------2-----------2-------2---|
  D|---------5---------------4-------|---------4-----------4-------4---|
  A|---------------------------------|---------------------------------|
  E|---------------------------------|---------------------------------|
     times           theyíre           not                         But
  G|---------------------------------|---------------------------------|
  D|---------------------------------|---------------------------------|
  A|---------------------------------|-2-----------2---2---------------|
  E|-3---------------2---------------|---------------------------------|
  B|---------------------------------|---------------------------------|

  G|---------------------------------|-4-----------4---4-------4-------|
  D|---------------------------------|---------------------------------|
  A|---------------------------------|---------------------------------|
  E|-3---------------2---------------|---------------------------------|



     E                                 A               B7
  e|---------------------------------|---------0-----------2-------2---|
  B|---------5-----------5-------5---|---------2-----------4-------4---|
  G|---------4-----------4-------4---|---------2-----------2-------2---|
  D|---------6-----------6-------6---|---------2-----------4-------4---|
  A|---------7-----------7-------7---|---------------------------------|
  E|---------------------------------|---------------------------------|
     when    she     says  she loves   you             That  means a
  G|---------------------------------|---------------------------------|
  D|---------------------------------|---------------------------------|
  A|---------------------------------|---------------------------------|
  E|-0-----------0---0---------------|-5-----------5---7---------------|
  B|---------------------------------|---------------------------------|

  G|---------------------------------|---------------------------------|
  D|---------------------------------|---------------------------------|
  A|---------------------------------|---------------------------------|
  E|-0-----------0---0---------------|-5-----------5---7---------------|



     E
  e|---------------------------------|---------------------------------|
  B|---------5-----------5-------5---|---------5-----------5-------5---|
  G|---------4-----------4-------4---|---------4-----------4-------4---|
  D|---------6-----------6-------6---|---------6-----------6-------6---|
  A|---------7-----------7-------7---|---------7-----------7-------7---|
  E|---------------------------------|---------------------------------|
     lot                                                           A
  G|---------------------------------|---------------------------------|
  D|---------------------------------|---------------------------------|
  A|---------------------------------|---------------------------------|
  E|-0-----------0---0---------------|-0-----------0---0---------------|
  B|---------------------------------|---------------------------------|

  G|---------------------------------|---------------------------------|
  D|---------------------------------|---------------------------------|
  A|---------------------------------|-7-------------------------------|
  E|-0-----------0---0---------------|-------------0---0---------------|


    VERSE

     E                                 Am6
  e|---------------------------------|---------------------------------|
  B|---------5-----------5-------5---|---------5-----------5-------5---|
  G|---------4-----------4-------4---|---------5-----------5-------5---|
  D|---------6-----------6-------6---|---------4-----------4-------4---|
  A|---------7-----------7-------7---|---------0-----------0-------0---|
  E|---------------------------------|---------------------------------|
     friend          says  that  a     love    is      never
  G|---------------------------------|---------------------------------|
  D|---------------------------------|---------------------------------|
  A|---------------------------------|-0-----------0---0---------------|
  E|-0-----------0---0---------------|---------------------------------|
  B|---------------------------------|---------------------------------|

  G|---------------------------------|---------------------------------|
  D|-----------------9---------------|-7-----------7-------------------|
  A|-------------7-------------------|-----------------7---------------|
  E|-0-------------------------------|---------------------------------|



     E
  e|---------------------------------|---------------------------------|
  B|---------5-----------5-------5---|---------5-----------5-------5---|
  G|---------4-----------4-------4---|---------4-----------4-------4---|
  D|---------6-----------6-------6---|---------6-----------6-------6---|
  A|---------7-----------7-------7---|---------7-----------7-------7---|
  E|---------------------------------|---------------------------------|
     true                                                          But
  G|---------------------------------|---------------------------------|
  D|---------------------------------|---------------------------------|
  A|---------------------------------|---------------------------------|
  E|-0-----------0---0---------------|-0-----------0---0---------------|
  B|---------------------------------|---------------------------------|

  G|---------------------------------|---------------------------------|
  D|-----------------9---------------|-----------------9---------------|
  A|-7-----------7-------------------|-7-----------7-------------------|
  E|---------------------------------|---------------------------------|



                                       Am6
  e|---------------------------------|---------------------------------|
  B|---------5-----------5-------5---|---------5-----------5-------5---|
  G|---------4-----------4-------4---|---------5-----------5-------5---|
  D|---------6-----------6-------6---|---------4-----------4-------4---|
  A|---------7-----------7-------7---|---------0-----------0-------0---|
  E|---------------------------------|---------------------------------|
     you             know  that  this  canít       apply       to
  G|---------------------------------|---------------------------------|
  D|---------------------------------|---------------------------------|
  A|---------------------------------|-0-----------0---0---------------|
  E|-0-----------0---0---------------|---------------------------------|
  B|---------------------------------|---------------------------------|

  G|---------------------------------|---------------------------------|
  D|---------------------------------|---------------------------------|
  A|---------------------------------|-0-----------0---0---------------|
  E|-0-----------0---0-------0-------|---------------------------------|



     F#m7                              B7
  e|---------2-----------2-------2---|---------2-----------2-------2---|
  B|---------2-----------2-------2---|---------4-----------4-------4---|
  G|---------2-----------2-------2---|---------2-----------2-------2---|
  D|---------2-----------2-------2---|---------4-----------4-------4---|
  A|---------------------------------|---------------------------------|
  E|---------------------------------|---------------------------------|
     you                                                           A
  G|---------------------------------|---------------------------------|
  D|---------------------------------|---------------------------------|
  A|---------------------------------|-2-----------2---2---------------|
  E|-2-----------2---2---------------|---------------------------------|
  B|---------------------------------|---------------------------------|

  G|---------------------------------|---------------------------------|
  D|---------------------------------|-9-----------9---9---------------|
  A|-9-----------9---9---------------|---------------------------------|
  E|---------------------------------|---------------------------------|



     G                                 A
  e|---------3-----------3-------3---|---------0-----------0-------0---|
  B|---------3-----------3-------3---|---------2-----------2-------2---|
  G|---------4-----------4-------4---|---------2-----------2-------2---|
  D|---------5-----------5-------5---|---------2-----------2-------2---|
  A|---------------------------------|---------------------------------|
  E|---------------------------------|---------------------------------|
     touch           can   mean  so    much                    When itís
  G|---------------------------------|---------------------------------|
  D|---------------------------------|---------------------------------|
  A|---------------------------------|---------------------------------|
  E|-3-----------3---3---------------|-5-----------5---5---------------|
  B|---------------------------------|---------------------------------|

  G|---------------------------------|---------------------------------|
  D|-5-----------5---5---------------|-7-----------7---7---------------|
  A|---------------------------------|---------------------------------|
  E|---------------------------------|---------------------------------|



     G               F#                B7
  e|---------3---------------2-------|---------2-----------2-------2---|
  B|---------3---------------2-------|---------4-----------4-------4---|
  G|---------4---------------3-------|---------2-----------2-------2---|
  D|---------5---------------4-------|---------4-----------4-------4---|
  A|---------------------------------|---------------------------------|
  E|---------------------------------|---------------------------------|
     all             youíve            got
  G|---------------------------------|---------------------------------|
  D|---------------------------------|---------------------------------|
  A|---------------------------------|-2-----------2---2---------------|
  E|-3---------------2---------------|---------------------------------|
  B|---------------------------------|---------------------------------|

  G|---------------------------------|-4-----------4---4-------4-------|
  D|---------------------------------|---------------------------------|
  A|---------------------------------|---------------------------------|
  E|-3---------------2---------------|---------------------------------|



     E                                 A               B7
  e|---------------------------------|---------0-----------2-------2---|
  B|---------5-----------5-------5---|---------2-----------4-------4---|
  G|---------4-----------4-------4---|---------2-----------2-------2---|
  D|---------6-----------6-------6---|---------2-----------4-------4---|
  A|---------7-----------7-------7---|---------------------------------|
  E|---------------------------------|---------------------------------|
     When    she     says  she loves   you             That  means a
  G|---------------------------------|---------------------------------|
  D|---------------------------------|---------------------------------|
  A|---------------------------------|---------------------------------|
  E|-0-----------0---0---------------|-5-----------5---7---------------|
  B|---------------------------------|---------------------------------|

  G|---------------------------------|---------------------------------|
  D|---------------------------------|---------------------------------|
  A|---------------------------------|---------------------------------|
  E|-0-----------0---0---------------|-5-----------5---7-------7-------|



     E
  e|---------------------------------|---------------------------------|
  B|---------5-----------5-------5---|---------5-----------------------|
  G|---------4-----------4-------4---|---------4-----------------------|
  D|---------6-----------6-------6---|---------6-----------------------|
  A|---------7-----------7-------7---|---------7-----------------------|
  E|---------------------------------|---------------------------------|
     lot                                               Love    can
  G|---------------------------------|---------------------------------|
  D|---------------------------------|---------------------------------|
  A|---------------------------------|---------------------------------|
  E|-0-----------0---0---------------|-0-----------0---0---------------|
  B|---------------------------------|---------------------------------|

  G|---------------------------------|---------------------------------|
  D|---------------------------------|---------------------------------|
  A|---------------------------------|-7-----------7-------------------|
  E|-0-----------0---0---------------|-----------------0---------------|


    BRIDGE

     C#m
  e|---------------------------------|---------------------------------|
  B|---------5-----------5-------5---|---------5-------5---------------|
  G|---------6-----------6-------6---|---------6-------6---------------|
  D|---------6-----------6-------6---|---------6-------6---------------|
  A|---------------------------------|---------------------------------|
  E|---------------------------------|---------------------------------|
     be                  deep inside                   Love    can
  G|---------------------------------|---------------------------------|
  D|---------------------------------|---------------------------------|
  A|-4-----------4---4---------------|-----------------4-------4-------|
  E|---------------------------------|---------------------------------|
  B|---------------------------------|---------------------------------|

  G|---------------------------------|---------------------------------|
  D|---------------------------------|---------------------------------|
  A|-4-----------4-------------------|-4-----------4-------------------|
  E|-----------------4---------------|-----------------4-------4-------|



[ Tab from: http://www.guitartabs.cc/tabs/b/beatles/that_means_a_lot_tab.html ]
  e|---------------------------------|---------------------------------|
  B|---------5-----------5-------5---|---------5-------5---------------|
  G|---------6-----------6-------6---|---------6-------6---------------|
  D|---------6-----------6-------6---|---------6-------6---------------|
  A|---------------------------------|---------------------------------|
  E|---------------------------------|---------------------------------|
     be                  suicide                       Canít   you
  G|---------------------------------|---------------------------------|
  D|---------------------------------|---------------------------------|
  A|-4-----------4---4---------------|-----------------4-------4-------|
  E|---------------------------------|---------------------------------|
  B|---------------------------------|---------------------------------|

  G|---------------------------------|---------------------------------|
  D|---------------------------------|---------------------------------|
  A|-4-----------4-------------------|-4-----------4---4-------3-------|
  E|-----------------4-------4-------|---------------------------------|



     E                                 B7
  e|---------------------------------|---------2-----------2-------2---|
  B|---------5-----------5-------5---|---------4-----------4-------4---|
  G|---------4-----------4-------4---|---------2-----------2-------2---|
  D|---------6-----------6-------6---|---------4-----------4-------4---|
  A|---------7-----------7-------7---|---------------------------------|
  E|---------------------------------|---------------------------------|
     see                 you canít     hide                what you
  G|---------------------------------|---------------------------------|
  D|---------------------------------|---------------------------------|
  A|-----------------2---------------|-2-----------2---2---------------|
  E|-0-----------0-------------------|---------------------------------|
  B|---------------------------------|---------------------------------|

  G|-----------------4---------------|-4-----------4-------------------|
  D|-2-----------2-------------------|-----------------4---------------|
  A|---------------------------------|---------------------------------|
  E|---------------------------------|---------------------------------|



     C#m                               G#7
  e|---------------------------------|---------------------------------|
  B|---------5-----------5-----------|-4-------------------------------|
  G|---------6-----------6-----------|-5-------------------------------|
  D|---------6-----------6-----------|-4-------------------------------|
  A|---------------------------------|-6-------------------------------|
  E|---------------------------------|---------------------------------|
     feel                    when itís real                          A
  G|---------------------------------|---------------------------------|
  D|---------------------------------|---------------------------------|
  A|-4-----------4---4---------------|---------------------------------|
  E|---------------------------------|-4-------------------------------|
  B|---------------------------------|---------------------------------|

  G|---------------------------------|---------------------------------|
  D|---------------------------------|---------------------------------|
  A|-4-----------4-------------------|---------------------------------|
  E|-----------------4-------4-------|-4-------------------------------|


    VERSE

     E                                 Am6
  e|---------------------------------|---------------------------------|
  B|---------5-----------5-------5---|---------5-----------5-------5---|
  G|---------4-----------4-------4---|---------5-----------5-------5---|
  D|---------6-----------6-------6---|---------4-----------4-------4---|
  A|---------7-----------7-------7---|---------0-----------0-------0---|
  E|---------------------------------|---------------------------------|
     friend          says  that  your  love    wonít   mean    a
  G|---------------------------------|---------------------------------|
  D|---------------------------------|---------------------------------|
  A|---------------------------------|-0-----------0---0---------------|
  E|-0-----------0---0---------------|---------------------------------|
  B|---------------------------------|---------------------------------|

  G|---------------------------------|---------------------------------|
  D|-----------------9---------------|-7-----------7-------------------|
  A|-7-----------7-------------------|-----------------7---------------|
  E|---------------------------------|---------------------------------|



     E
  e|---------------------------------|---------------------------------|
  B|---------5-----------5-------5---|---------------------5-----------|
  G|---------4-----------4-------4---|---------------------4-----------|
  D|---------6-----------6-------6---|---------6-----------6-----------|
  A|---------7-----------7-------7---|---------7-----------7-----------|
  E|---------------------------------|---------------------------------|
     lot                                                           But
  G|---------------------------------|---------------------------------|
  D|---------------------------------|---------------------------------|
  A|---------------------------------|---------------------------------|
  E|-0-----------0---0---------------|-0-----------0---0---------------|
  B|---------------------------------|---------------------------------|

  G|---------------------------------|---------------------------------|
  D|-----------------9---------------|-----------------9---------------|
  A|-7-----------7-------------------|-7-----------7-------------------|
  E|---------------------------------|---------------------------------|



                                       Am6
  e|---------------------------------|---------------------------------|
  B|---------5-----------5-------5---|---------5-----------5-------5---|
  G|---------4-----------4-------4---|---------5-----------5-------5---|
  D|---------6-----------6-------6---|---------4-----------4-------4---|
  A|---------7-----------7-------7---|---------0-----------0-------0---|
  E|---------------------------------|---------------------------------|
     you             know  that  your  love        is  all     youíve
  G|---------------------------------|---------------------------------|
  D|---------------------------------|---------------------------------|
  A|---------------------------------|-0-----------0---0---------------|
  E|-0-----------0---0---------------|---------------------------------|
  B|---------------------------------|---------------------------------|

  G|---------------------------------|---------------------------------|
  D|-----------------9---------------|-7-----------7-------------------|
  A|-7-----------7-------------------|-----------------7---------------|
  E|---------------------------------|---------------------------------|



     F#m7                              B7
  e|---------2-----------2-------2---|---------2-----------2-------2---|
  B|---------2-----------2-------2---|---------4-----------4-------4---|
  G|---------2-----------2-------2---|---------2-----------2-------2---|
  D|---------2-----------2-------2---|---------4-----------4-------4---|
  A|---------------------------------|---------------------------------|
  E|---------------------------------|---------------------------------|
     got                                                           A
  G|---------------------------------|---------------------------------|
  D|---------------------------------|---------------------------------|
  A|---------------------------------|---------------------------------|
  E|-2-----------2---2---------------|---------------------------------|
  B|---------------------------------|-0-----------0---0---------------|

  G|---------------------------------|---------------------------------|
  D|---------------------------------|-9-----------9---9-------9-------|
  A|-9-----------9---9-------9-------|---------------------------------|
  E|---------------------------------|---------------------------------|



     G                                 A
  e|---------------------3-------3---|---------0-----------0-------0---|
  B|---------3-----------3-------3---|---------2-----------2-------2---|
  G|---------4-----------4-------4---|---------2-----------2-------2---|
  D|---------5-----------5-------5---|---------2-----------2-------2---|
  A|---------------------------------|---------------------------------|
  E|---------------------------------|---------------------------------|
     touch           can   mean  so    much                    When itís
  G|---------------------------------|---------------------------------|
  D|---------------------------------|---------------------------------|
  A|---------------------------------|---------------------------------|
  E|-3-----------3---3---------------|-5-----------5---5---------------|
  B|---------------------------------|---------------------------------|

  G|---------------------------------|---------------------------------|
  D|-5-----------5---5---------------|-7-----------7---7---------------|
  A|---------------------------------|---------------------------------|
  E|---------------------------------|---------------------------------|



     G               F#                B7
  e|---------3---------------2-------|---------2-----------2-------2---|
  B|---------3---------------2-------|---------4-----------4-------4---|
  G|---------4---------------3-------|---------2-----------2-------2---|
  D|---------5---------------4-------|---------4-----------4-------4---|
  A|---------------------------------|---------------------------------|
  E|---------------------------------|---------------------------------|
     all             youíve            got                         But
  G|---------------------------------|---------------------------------|
  D|---------------------------------|---------------------------------|
  A|---------------------------------|-2-----------2---2---------------|
  E|-3---------------2---------------|---------------------------------|
  B|---------------------------------|---------------------------------|

  G|---------------------------------|-4-----------4---4-------4-------|
  D|-5---------------4---------------|---------------------------------|
  A|---------------------------------|---------------------------------|
  E|---------------------------------|---------------------------------|



     E                                 A               B7
  e|---------------------------------|---------0-----------2-------2---|
  B|---------5-----------5-------5---|---------2-----------4-------4---|
  G|---------4-----------4-------4---|---------2-----------2-------2---|
  D|---------6-----------6-------6---|---------2-----------4-------4---|
  A|---------7-----------7-------7---|---------------------------------|
  E|---------------------------------|---------------------------------|
     when    she     says  she loves   you             That  means a
  G|---------------------------------|---------------------------------|
  D|---------------------------------|---------------------------------|
  A|---------------------------------|---------------------------------|
  E|-0-----------0---0---------------|-5-----------5---7---------------|
  B|---------------------------------|---------------------------------|

  G|---------------------------------|---------------------------------|
  D|---------------------------------|---------------------------------|
  A|---------------------------------|---------------------------------|
  E|-0-----------0---0---------------|-5-----------5---7-------7-------|



     E                                 C#m
  e|---------------------------------|---------------------------------|
  B|---------5-----------5-------5---|---------5-----------------------|
  G|---------4-----------4-------4---|---------6-----------------------|
  D|---------6-----------6-------6---|---------6-----------------------|
  A|---------7-----------7-------7---|---------------------------------|
  E|---------------------------------|---------------------------------|
     lot                                               Canít   you
  G|---------------------------------|---------------------------------|
  D|---------------------------------|---------------------------------|
  A|---------------------------------|---------------------------------|
  E|-0-----------0---0---------------|---------------------------------|
  B|---------------------------------|-2-----------2---2---------------|

  G|---------------------------------|---------------------------------|
  D|---------------------------------|---------------------------------|
  A|-7-----------7---7---------------|-4-----------4---4---------------|
  E|---------------------------------|---------------------------------|


    OUTRO

     E                                 C#m
  e|---------------------------------|---------------------------------|
  B|---------5-----------5-----------|---------5-----------5-----------|
  G|---------4-----------4-----------|---------6-----------6-----------|
  D|---------6-----------6-----------|---------6-----------6-----------|
  A|---------7-----------7-----------|---------------------------------|
  E|---------------------------------|---------------------------------|
     see?                              Yeah            Canít   you
  G|---------------------------------|---------------------------------|
  D|---------------------------------|---------------------------------|
  A|---------------------------------|---------------------------------|
  E|-0-----------0---0---------------|---------------------------------|
  B|---------------------------------|-2-----------2---2---------------|

  G|---------------------------------|---------------------------------|
  D|---------------------------------|---------------------------------|
  A|-7-----------7---7---------------|-4-----------4---4---------------|
  E|---------------------------------|---------------------------------|




     E                                 C#m
  e|---------------------------------|---------------------------------|
  B|---------5-----------5-----------|---------5-----------5-----------|
  G|---------4-----------4-----------|---------6-----------6-----------|
  D|---------6-----------6-----------|---------6-----------6-----------|
  A|---------7-----------7-----------|---------------------------------|
  E|---------------------------------|---------------------------------|
     see?                              Yeah            Canít   you
  G|---------------------------------|---------------------------------|
  D|---------------------------------|---------------------------------|
  A|---------------------------------|---------------------------------|
  E|-0-----------0---0---------------|---------------------------------|
  B|---------------------------------|-2-----------2---2---------------|

  G|---------------------------------|---------------------------------|
  D|---------------------------------|---------------------------------|
  A|-7-----------7---7---------------|-4-----------4---4---------------|
  E|---------------------------------|---------------------------------|




     E                                 C#m
  e|---------------------------------|---------------------------------|
  B|---------5-----------5-----------|---------5-----------5-----------|
  G|---------4-----------4-----------|---------6-----------6-----------|
  D|---------6-----------6-----------|---------6-----------6-----------|
  A|---------7-----------7-----------|---------------------------------|
  E|---------------------------------|---------------------------------|
     see?                              Yeah            Canít   you
  G|---------------------------------|---------------------------------|
  D|---------------------------------|---------------------------------|
  A|---------------------------------|---------------------------------|
  E|-0-----------0---0---------------|---------------------------------|
  B|---------------------------------|-2-----------2---2---------------|

  G|---------------------------------|---------------------------------|
  D|---------------------------------|---------------------------------|
  A|-7-----------7---7---------------|-4-----------4---4---------------|
  E|---------------------------------|---------------------------------|




     E                                 C#m
  e|---------------------------------|---------------------------------|
  B|---------5-----------5-----------|---------5-----------5-----------|
  G|---------4-----------4-----------|---------6-----------6-----------|
  D|---------6-----------6-----------|---------6-----------6-----------|
  A|---------7-----------7-----------|---------------------------------|
  E|---------------------------------|---------------------------------|
     see?                              Yeah            Canít   you
  G|---------------------------------|---------------------------------|
  D|---------------------------------|---------------------------------|
  A|---------------------------------|---------------------------------|
  E|-0-----------0---0---------------|---------------------------------|
  B|---------------------------------|-2-----------2---2---------------|

  G|---------------------------------|---------------------------------|
  D|---------------------------------|---------------------------------|
  A|-7-----------7---7---------------|-4-----------4---4---------------|
  E|---------------------------------|---------------------------------|




     E                                 C#m
  e|---------------------------------|---------------------------------|
  B|---------5-----------5-----------|---------5-----------5-----------|
  G|---------4-----------4-----------|---------6-----------6-----------|
  D|---------6-----------6-----------|---------6-----------6-----------|
  A|---------7-----------7-----------|---------------------------------|
  E|---------------------------------|---------------------------------|
     see?                              Yeah            Canít   you
  G|---------------------------------|---------------------------------|
  D|---------------------------------|---------------------------------|
  A|---------------------------------|---------------------------------|
  E|-0-----------0---0---------------|---------------------------------|
  B|---------------------------------|-2-----------2---2---------------|

  G|---------------------------------|---------------------------------|
  D|---------------------------------|---------------------------------|
  A|-7-----------7---7---------------|-4-----------4---4---------------|
  E|---------------------------------|---------------------------------|




     E                                 C#m
  e|---------------------------------|---------------------------------|
  B|---------5-----------5-----------|---------5-----------5-----------|
  G|---------4-----------4-----------|---------6-----------6-----------|
  D|---------6-----------6-----------|---------6-----------6-----------|
  A|---------7-----------7-----------|---------------------------------|
  E|---------------------------------|---------------------------------|
     see?                              Aaaah           Canít   you
  G|---------------------------------|---------------------------------|
  D|---------------------------------|---------------------------------|
  A|---------------------------------|---------------------------------|
  E|-0-----------0---0---------------|---------------------------------|
  B|---------------------------------|-2-----------2---2---------------|

  G|---------------------------------|---------------------------------|
  D|---------------------------------|---------------------------------|
  A|-7-----------7---7---------------|-4-----------4---4---------------|
  E|---------------------------------|---------------------------------|




     E                                 C#m
  e|---------------------------------|---------------------------------|
  B|---------5-----------5-----------|---------5-----------5-----------|
  G|---------4-----------4-----------|---------6-----------6-----------|
  D|---------6-----------6-----------|---------6-----------6-----------|
  A|---------7-----------7-----------|---------------------------------|
  E|---------------------------------|---------------------------------|
     see?                              Yeah            Canít   you
  G|---------------------------------|---------------------------------|
  D|---------------------------------|---------------------------------|
  A|---------------------------------|---------------------------------|
  E|-0-----------0---0---------------|---------------------------------|
  B|---------------------------------|-2-----------2---2---------------|

  G|---------------------------------|---------------------------------|
  D|---------------------------------|---------------------------------|
  A|-7-----------7---7---------------|-4-----------4---4---------------|
  E|---------------------------------|---------------------------------|



    Fade Out
     E                                 C#m
  e|---------------------------------|---------------------------------|
  B|---------5-----------5-----------|---------5-----------5-----------|
  G|---------4-----------4-----------|---------6-----------6-----------|
  D|---------6-----------6-----------|---------6-----------6-----------|
  A|---------7-----------7-----------|---------------------------------|
  E|---------------------------------|---------------------------------|
     see?                              Yeah            Canít   you
  G|---------------------------------|---------------------------------|
  D|---------------------------------|---------------------------------|
  A|---------------------------------|---------------------------------|
  E|-0-----------0---0---------------|---------------------------------|
  B|---------------------------------|-2-----------2---2---------------|

  G|---------------------------------|---------------------------------|
  D|---------------------------------|---------------------------------|
  A|-7-----------7---7---------------|-4-----------4---4---------------|
  E|---------------------------------|---------------------------------|




     E                                 C#m
  e|---------------------------------|---------------------------------|
  B|---------5-----------5-----------|---------5-----------5-----------|
  G|---------4-----------4-----------|---------6-----------6-----------|
  D|---------6-----------6-----------|---------6-----------6-----------|
  A|---------7-----------7-----------|---------------------------------|
  E|---------------------------------|---------------------------------|
     see?                              Yeah            Canít   you
  G|---------------------------------|---------------------------------|
  D|---------------------------------|---------------------------------|
  A|---------------------------------|---------------------------------|
  E|-0-----------0---0---------------|---------------------------------|
  B|---------------------------------|-2-----------2---2---------------|

  G|---------------------------------|---------------------------------|
  D|---------------------------------|---------------------------------|
  A|-7-----------7---7---------------|-4-----------4---4---------------|
  E|---------------------------------|---------------------------------|
Comments