Beatles - That Means A Lot Chords & Tabs

 

That Means A Lot Chords & Tabs

Beatles Chords & Tabs

Version: 7 Type: Bass Tab 0 ratings
1 star 2 stars 3 stars 4 stars 5 stars
comments

That Means A Lot Bass Tab

   
THAT MEANS A LOT


Written by Paul McCartney



  INTRO


  t=125
G|---------------------------------|---------------------------------|
D|-----------------9---------------|-----------------9---------------|
A|-7-----------7-------------------|-7-----------7-------------------|
E|---------------------------------|---------------------------------|
                                                                 A


  VERSE


G|---------------------------------|---------------------------------|
D|---------------------------------|-7-----------7-----------7-------|
A|-7-----------7---7---------------|-----------------7---------------|
E|---------------------------------|---------------------------------|
   friend          says that your    love    won't   mean    a



G|---------------------------------|---------------------------------|
D|-----------------9---------------|-----------------9---------------|
A|-7-----------7-------------------|-7-----------7-------------------|
E|---------------------------------|---------------------------------|
   lot                                                           but



G|---------------------------------|---------------------------------|
D|-----------------9---------------|---------------------------------|
A|-7-----------7-------------------|-0-----------0---0-------0-------|
E|---------------------------------|---------------------------------|
   you             know that your    love        is  all     you've



G|---------------------------------|---------------------------------|
D|---------------------------------|---------------------------------|
A|---------------------------------|-2-----------2---2---------------|
E|-2-----------2---2-------2-------|---------------------------------|
   got                                                          at



G|---------------------------------|---------------------------------|
D|---------------------------------|---------------------------------|
A|---------------------------------|---------------------------------|
E|-3-----------3---3---------------|-5-----------5---5---------------|
   times           things are so     fine                     and at



G|---------------------------------|---------------------------------|
D|---------------------------------|---------------------------------|
A|---------------------------------|-2-----------2---2-------2-------|
E|-3---------------2---------------|---------------------------------|
   times           they're           not                         but



G|---------------------------------|---------------------------------|
D|---------------------------------|---------------------------------|
A|---------------------------------|---------------------------------|
E|-0-----------0---0---------------|-5-----------5---7---------------|
   when    she     says  she loves   you             that  means a



G|---------------------------------|---------------------------------|
D|---------------------------------|---------------------------------|
A|---------------------------------|-7-------------------------------|
E|-0-----------0---0---------------|-------------0---0---------------|
   lot                                                           A



  VERSE



G|---------------------------------|---------------------------------|
D|-----------------9---------------|-7-----------7---7---------------|
A|-------------7-------------------|---------------------------------|
E|-0-------------------------------|---------------------------------|
   friend          says that a       love    is      never



G|---------------------------------|---------------------------------|
D|-----------------9---------------|-----------------9---------------|
A|-7-----------7-------------------|-7-----------7-------------------|
E|---------------------------------|---------------------------------|
   true                                                          but



G|---------------------------------|---------------------------------|
D|---------------------------------|---------------------------------|
A|---------------------------------|-0-----------0---0---------------|
E|-0-----------0---0-------0-------|---------------------------------|
   you             know that this    can't       apply       to



G|---------------------------------|---------------------------------|
D|---------------------------------|-9-----------9---9---------------|
A|-9-----------9---9---------------|---------------------------------|
E|---------------------------------|---------------------------------|
   you                                                           A



G|---------------------------------|---------------------------------|
D|-5-----------5---5---------------|-7-----------7---7---------------|
A|---------------------------------|---------------------------------|
E|---------------------------------|---------------------------------|
   touch           can  mean  so     much                    when it's



G|---------------------------------|---------------------------------|
D|---------------------------------|---------------------------------|
A|---------------------------------|-2-----------2---2-------2-------|
E|-3---------------2---------------|---------------------------------|
   all             you've            got                         and



G|---------------------------------|---------------------------------|
D|---------------------------------|---------------------------------|
A|---------------------------------|---------------------------------|
E|-0-----------0---0---------------|-5-----------5---7-------7-------|
   when    she     says  she loves   you             that  means a



G|---------------------------------|---------------------------------|
D|---------------------------------|---------------------------------|
A|---------------------------------|-7-----------7-------------------|
E|-0-----------0---0---------------|-----------------0---------------|
   lot                                               Love    can



  BRIDGE



G|---------------------------------|---------------------------------|
D|---------------------------------|---------------------------------|
A|-4-----------4-------------------|-4-----------4-------------------|
E|-----------------4---------------|-----------------4-------4-------|
   be                  deep inside                   love    can


[ Tab from: http://www.guitartabs.cc/tabs/b/beatles/that_means_a_lot_btab_ver_7.html ]
G|---------------------------------|---------------------------------|
D|---------------------------------|---------------------------------|
A|-4-----------4-------------------|-4-----------4---4-------3-------|
E|-----------------4-------4-------|---------------------------------|
   be                  suicide                       can't   you



G|---------------------------------|---------------------------------|
D|---------------------------------|---------------------------------|
A|-2-----------2---2---------------|---------------------------------|
E|---------------------------------|-2-----------2---2---------------|
   see                 you can't     hide                what you



G|---------------------------------|---------------------------------|
D|---------------------------------|---------------------------------|
A|-4-----------4---4-------4-------|---------------------------------|
E|---------------------------------|-4-------------------------------|
   feel                    when it's real                        A



  VERSE



G|---------------------------------|---------------------------------|
D|-----------------9---------------|-7-----------7-----------7-------|
A|-7-----------7-------------------|-----------------7---------------|
E|---------------------------------|---------------------------------|
   friend          says that your    love    won't   mean    a



G|---------------------------------|---------------------------------|
D|---------------------------------|---------------------------------|
A|-7-----------7---7---------------|---------------------------------|
E|---------------------------------|-0-----------0---0---------------|
   lot                                                           but



G|---------------------------------|---------------------------------|
D|-----------------9---------------|-7-----------7---7-------7-------|
A|-7-----------7-------------------|---------------------------------|
E|---------------------------------|---------------------------------|
   you             know that your    love        is  all     you've



G|---------------------------------|---------------------------------|
D|---------------------------------|---------------------------------|
A|---------------------------------|-2-----------2---2-------2-------|
E|-2-----------2---2-------2-------|---------------------------------|
   got                                                           A



G|---------------------------------|---------------------------------|
D|---------------------------------|---------------------------------|
A|---------------------------------|---------------------------------|
E|-3-----------3---3---------------|-5-----------5---5---------------|
   touch           can  mean  so     much                    when it's



G|---------------------------------|---------------------------------|
D|---------------------------------|---------------------------------|
A|---------------------------------|-2-----------2---2-------2-------|
E|-3---------------2---------------|---------------------------------|
   all             you've            got                         but



G|---------------------------------|---------------------------------|
D|---------------------------------|---------------------------------|
A|---------------------------------|---------------------------------|
E|-0-----------0---0---------------|-5-----------5---7-------7-------|
   when    she     says  she loves   you             that  means a



G|---------------------------------|---------------------------------|
D|---------------------------------|---------------------------------|
A|-7-----------7---7-------7-------|-4-----------4---4---------------|
E|-----------------------------7---|---------------------------------|
   lot                                               Can't   you



  OUTRO


  t=128
G|---------------------------------|---------------------------------|
D|---------------------------------|---------------------------------|
A|-7-----------7---7---------------|-4-----------4---4---------------|
E|---------------------------------|---------------------------------|
   see?                              yeah            can't   you



G|---------------------------------|---------------------------------|
D|---------------------------------|---------------------------------|
A|-7-----------7---7---------------|-4-----------4---4---------------|
E|---------------------------------|---------------------------------|
   see?                              yeah            can't   you



G|---------------------------------|---------------------------------|
D|---------------------------------|---------------------------------|
A|-7-----------7---7---------------|-4-----------4---4---------------|
E|---------------------------------|---------------------------------|
   see?                              yeah            can't   you



G|---------------------------------|---------------------------------|
D|---------------------------------|---------------------------------|
A|-7-----------7---7---------------|-4-----------4---4---------------|
E|---------------------------------|---------------------------------|
   see?                              yeah            can't   you



G|---------------------------------|---------------------------------|
D|---------------------------------|---------------------------------|
A|-7-----------7---7---------------|-4-----------4---4---------------|
E|---------------------------------|---------------------------------|
   see?                              yeah            can't   you



G|---------------------------------|---------------------------------|
D|---------------------------------|---------------------------------|
A|-7-----------7---7---------------|-4-----------4---4---------------|
E|---------------------------------|---------------------------------|
   see?                              whooooa         can't   you



G|---------------------------------|---------------------------------|
D|---------------------------------|---------------------------------|
A|-7-----------7---7---------------|-4-----------4---4---------------|
E|---------------------------------|---------------------------------|
   see?                              yeah            can't   you



G|---------------------------------|---------------------------------|
D|---------------------------------|---------------------------------|
A|-7-----------7---7---------------|-4-----------4---4---------------|
E|---------------------------------|---------------------------------|
   see?                              yeah            can't   you



G|---------------------------------|---------------------------------|
D|---------------------------------|---------------------------------|
A|-7-----------7---7---------------|-4-----------4---4---------------|
E|---------------------------------|---------------------------------| ....
   see?                              ooooooooooh
Comments