Beatles - That Means A Lot Chords & Tabs

 

That Means A Lot Chords & Tabs

Beatles Chords & Tabs

Version: 6 Type: Bass Tab 0 ratings
1 star 2 stars 3 stars 4 stars 5 stars
comments

That Means A Lot Bass Tab

   
That Means A Lot
The Beatles
Written by John Lennon and Paul McCartney

A song from the Anthology.

Intro:
G|------- ------- ------- -------|------- ------- ------- -------|
D|-------------------------------|-------------------------------|
A|-------------------------------|-------------------------------|
E|-------------------------------|-------------------------------|



G|------- ------- ------- -------|------- ------- ------- -------|
D|----------------9--------------|----------------9--------------|
A|7-----------7------------------|7-----------7------------------|
E|-------------------------------|-------------------------------|
                                                              A

Verse:
G|------- ------- ------- -------|------- ------- ------- -------|
D|-------------------------------|7-----------7------------------|
A|7-----------7---7--------------|----------------7--------------|
E|-------------------------------|-------------------------------|
  friend          says that  your love    won't   mean    a


G|------- ------- ------- -------|------- ------- ------- -------|
D|----------------9--------------|----------------9--------------|
A|7-----------7------------------|7-----------7------------------|
E|-------------------------------|-------------------------------|
  lot,                                                        But


G|------- ------- ------- -------|------- ------- ------- -------|
D|----------------9--------------|7-----------7------------------|
A|7-----------7------------------|----------------7--------------|
E|-------------------------------|-------------------------------|
  you             know that  your love        is  all     you've


G|------- ------- ------- -------|4------ ----4-- 4------ -------|
D|4-----------4---4-------4------|-------------------------------|
A|-------------------------------|-------------------------------|
E|-------------------------------|-------------------------------|
  got                                                         At


G|------- ------- ------- -------|------- ------- ------- -------|
D|-------------------------------|-------------------------------|
A|-------------------------------|-------------------------------|
E|3-----------3---3--------------|5-----------5---5--------------|
  times           things are so   fine,                   and at


G|------- ------- ------- -------|4------ ----4-- 4------ 4------|
D|-------------------------------|-------------------------------|
A|-------------------------------|-------------------------------|
E|3---------------2--------------|-------------------------------|
  times           they're         not,                        But


G|------- ------- ------- -------|------- ------- ------- -------|
D|-------------------------------|-------------------------------|
A|-------------------------------|-------------------------------|
E|0-----------0---0--------------|5-----------5---7--------------|
  when    she     says she loves you,             that means  a


G|------- ------- ------- -------|------- ------- ------- -------|
D|-------------------------------|-------------------------------|
A|-------------------------------|7------------------------------|
E|0-----------0---0--------------|------------0---0--------------|
  lot                                                         A

Verse:
G|------- ------- ------- -------|------- ------- ------- -------|
D|----------------9--------------|7-----------7------------------|
A|-------------------------------|----------------7--------------|
E|0-----------0------------------|-------------------------------|
  friend          says that  a    love    is      ne  -   ver


G|------- ------- ------- -------|------- ------- ------- -------|
D|----------------9--------------|----------------9--------------|
A|7-----------7------------------|7-----------7------------------|
E|-------------------------------|-------------------------------|
  true,                                                       But


G|------- ------- ------- -------|------- ------- ------- -------|
D|-------------------------------|7-----------7------------------|
A|-------------------------------|----------------7--------------|
E|0-----------0---0-------0------|-------------------------------|
  you             know that  it   can't   app-    ly      to


G|------- ------- ------- -------|4------ ----4-- 4------ -------|
D|4-----------4---4--------------|-------------------------------|
A|-------------------------------|-------------------------------|
E|-------------------------------|-------------------------------|
  you                                                         A


G|------- ------- ------- -------|2------ ----2-- 2------ -------|
D|5-----------5---5--------------|-------------------------------|
A|-------------------------------|-------------------------------|
E|-------------------------------|-------------------------------|
  touch           can  mean  so   much,                   when it's

[ Tab from: http://www.guitartabs.cc/tabs/b/beatles/that_means_a_lot_btab_ver_6.html ]
G|------- ------- ------- -------|4------ ----4-- 4------ -------|
D|-------------------------------|-------------------------------|
A|-------------------------------|-------------------------------|
E|3---------------2--------------|-------------------------------|
  all             you've          got,                        But


G|------- ------- ------- -------|------- ------- ------- -------|
D|-------------------------------|-------------------------------|
A|-------------------------------|-------------------------------|
E|0-----------0---0--------------|5-----------5---7-------7------|
  when    she     says she loves you,             that means  a


G|------- ------- ------- -------|------- ------- ------- -------|
D|-------------------------------|-------------------------------|
A|-------------------------------|7-----------7------------------|
E|0-----------0---0--------------|----------------0--------------|
  lot                                             Love    can

Bridge:
G|------- ------- ------- -------|------- ------- ------- -------|
D|-------------------------------|-------------------------------|
A|4-----------4------------------|4-----------4------------------|
E|----------------4--------------|----------------4-------4------|
  be                  deep inside,                love    can


G|------- ------- ------- -------|------- ------- ------- -------|
D|-------------------------------|-------------------------------|
A|4-----------4------------------|4-----------4---4-------3------|
E|----------------4-------4------|-------------------------------|
  be                  suicide,                    Can't   you


G|------- ------- 4------ -------|4------ ----4-- ------- -------|
D|2-----------2------------------|----------------4--------------|
A|-------------------------------|-------------------------------|
E|-------------------------------|-------------------------------|
  see                 you can't hide              what you


G|------- ------- ------- -------|------- ------- ------- -------|
D|-------------------------------|-------------------------------|
A|4-----------4------------------|-------------------------------|
E|----------------4-------4------|4------------------------------|
  feel,                  when it's true?                      A

Verse:
G|------- ------- ------- -------|------- ------- ------- -------|
D|----------------9--------------|7-----------7------------------|
A|-------------------------------|----------------7--------------|
E|0-----------0------------------|-------------------------------|
  friend          says that  your love    won't   mean    a


G|------- ------- ------- -------|------- ------- ------- -------|
D|----------------9--------------|----------------9--------------|
A|7-----------7------------------|7-----------7------------------|
E|-------------------------------|-------------------------------|
  lot,                                                        But


G|------- ------- ------- -------|------- ------- ------- -------|
D|----------------9--------------|7-----------7------------------|
A|7-----------7------------------|----------------7--------------|
E|-------------------------------|-------------------------------|
  you             know that  your love        is  all     you've


G|------- ------- ------- -------|4------ ----4-- 4------ 4------|
D|4-----------4---4-------4------|-------------------------------|
A|-------------------------------|-------------------------------|
E|-------------------------------|-------------------------------|
  you                                                         A


G|------- ------- ------- -------|------- ------- ------- -------|
D|5-----------5---5--------------|7-----------7---7--------------|
A|-------------------------------|-------------------------------|
E|-------------------------------|-------------------------------|
  touch           can  mean  so   much,                   when it's


G|------- ------- ------- -------|4------ ----4-- 4------ 4------|
D|5---------------4--------------|-------------------------------|
A|-------------------------------|-------------------------------|
E|-------------------------------|-------------------------------|
  all             you've          got,                        But


G|------- ------- ------- -------|------- ------- ------- -------|
D|-------------------------------|-------------------------------|
A|-------------------------------|-------------------------------|
E|0-----------0---0--------------|5-----------5---7-------7------|
  when    she     says she loves you,             that means  a


G|------- ------- ------- -------|------- ------- ------- -------|
D|-------------------------------|-------------------------------|
A|7-----------7---7--------------|4-----------4---4--------------|
E|-------------------------------|-------------------------------|
  lot                                             Can't   you

Outro:
G|------- ------- ------- -------|------- ------- ------- -------|
D|-------------------------------|-------------------------------|
A|7-----------7---7--------------|4-----------4---4--------------|
E|-------------------------------|-------------------------------|
  see,                            yeah?           Can't   you...
repeat and fade out...

Please e-mail me for any corrections, or write a comment.
Comments