Beatles - Sweet Little Sixteen Chords & Tabs

 

Sweet Little Sixteen Chords & Tabs

Beatles Chords & Tabs

Version: 2 Type: Bass Tab 0 ratings
1 star 2 stars 3 stars 4 stars 5 stars
comments

Sweet Little Sixteen Bass Tab

SWEET LITTLE SIXTEEN

Written by Chuck Berry

VERSE
  t=174
G|---------------------------------|---------------------------------|
D|-9-----------9-------------------|-9-----------9-----------9-------|
A|-----------------9-----------9---|-----------------9---------------|
E|---------------------------------|---------------------------------|

G|---------------------------------|---------9-----------------------|
D|-----------------9-----------9---|---------------------9-----------|
A|-7-----------7-----------7-------|-7---------------7-------7-------|
E|---------------------------------|---------------------------------|

G|---------------------------------|---------------------------------|
D|---------------------------------|-9-----------9---9---------------|
A|-----------------9---------------|---------------------------------|
E|-7-------------------------------|---------------------------------|

G|---------------------------------|---------------------------------|
D|---------------------------------|-----------------4-------6-------|
A|-7-----------7---7---------------|-7---7---7---7-------------------|
E|---------------------------------|---------------------------------|

G|---------------------------------|---------------------------------|
D|-7-----------7-------------------|-7-----------7-----------7-------|
A|-----------------7-----------7---|-----------------7---------------|
E|---------------------------------|---------------------------------|

G|---------------------------------|---------------------------------|
D|-----------------9-----------9---|-----------------9---------------|
A|-7-------------------------------|-7-----------7-----------7-------|
E|---------------------------------|---------------------------------|

G|---------------------------------|---------------------------------|
D|-----------------------------9---|-9---9---7---7-------------------|
A|-----------------9---------------|---------------------7-----------|
E|-7-------------------------------|-----------------7---------------|

G|---------------------------------|---------------------------------|
D|-----------------9---------------|---------------------------------|
A|-7-----------------------7-------|-7-------------------------------|
E|---------------------------------|---------------------------------|

VERSE

G|---------------------------------|---------------------------------|
D|---------------------------------|---------------------------------|
A|---------6-------9-------7---6---|---------------------------------|
E|-7-----------7-------7-----------|-7-------------------------------|

G|---------------------------------|---------------------------------|
D|---------6-------9-------7---6---|---------------------------------|
A|-7-----------7-------7-----------|-7-------------------------------|
E|---------------------------------|---------------------------------|

G|---------------------------------|---------------------------------|
D|---------------------------------|---------------------------------|
A|---------6-------9-------7---6---|---------------------------------|
E|-7-----------7-------7-----------|-7-------------------------------|

G|---------------------------------|---------------------------------|
D|---------6-------9-------7---6---|---------------------------------|
A|-7-----------7-------7-----------|-7-------------------------------|
E|---------------------------------|---------------------------------|

G|---------------------------------|---------------------------------|
D|---------------------------------|---------------------------------|
A|---------4-------7-------5---4---|---------------------------------|
E|-5-----------5-------5-----------|-5-------------------------------|

G|---------------------------------|---------------------------------|
D|---------6-------9-------7---6---|---------------------------------|
A|-7-----------7-------7-----------|-7-------------------------------|
E|---------------------------------|---------------------------------|

G|---------------------------------|---------------------------------|
D|---------------------------------|---------------------------------|
A|---------6-------9-------7---6---|---------------------------------|
E|-7-----------7-------7-----------|-7-------------------------------|

G|---------------------------------|---------------------------------|
D|---------6-------9-------7---6---|---------------------------------|
A|-7-----------7-------7-----------|-7-------5-------4---------------|
E|---------------------------------|-------------------------7-------|

BRIDGE

G|---------------------------------|---------------------------------|
D|---------------------------------|---------------------------------|
A|-------------4---7-------4---7---|-------------4---7-------4-------|
E|-5-------------------------------|-5-------------------------------|

G|---------------------------------|---------------------------------|
D|-------------6---9-------6---9---|-------------6---9-------6-------|
A|-7-------------------------------|-7-------------------------------|
E|---------------------------------|---------------------------------|

G|---------------------------------|---------------------------------|
D|---------------------------------|---------------------------------|
A|-------------6---9-------6-------|-------------6---9-------6-------|
E|-7-------------------------------|-7-------------------------------|

G|---------------------------------|---------------------------------|
D|-------------6---9-------6-------|---------------------------------|
A|-7-------------------------------|-7-----------5---4---------------|
E|---------------------------------|-------------------------7-------|

G|---------------------------------|---------------------------------|
D|---------7-----------------------|---------7-----------------------|
A|-----------------4-------7-------|-----------------4---------------|
E|-5-------------------------------|-5-----------------------5-------|

G|-9-------9-----------------------|-9-------9-----------------------|
D|-----------------6---9-------6---|-----------------6---9-------6---|
A|---------------------------------|---------------------------------|
E|---------------------------------|---------------------------------|

G|---------------------------------|---------------------------------|
D|---------9---------------7-------|---------------------------------|
A|-----------------9---------------|-----------------9---------------|
E|-7-------------------------------|-7-----------7-----------7-------|
[ Tab from: http://www.guitartabs.cc/tabs/b/beatles/sweet_little_sixteen_btab_ver_2.html ]
G|---------------------------------|---------------------------------|
D|-------------6---9-------6-------|---------------------------------|
A|-7-------------------------------|-7-------7-------5-------4-------|
E|---------------------------------|---------------------------------|

GUITAR SOLO

G|---------13--------------13------|---------13----------------------|
D|---------------------------------|---------------------------------|
A|---------------------------------|---------------------------------|
E|-7---------------7---------------|-7---------------7---------------|

G|---------------------------------|---------------------------------|
D|-------------6---9-------6---9---|-------------6---9-------6-------|
A|-7-------------------------------|-7-------------------------------|
E|---------------------------------|---------------------------------|

G|---------13--------------13------|---------13----------------------|
D|---------------------------------|---------------------------------|
A|---------------------------------|---------------------------------|
E|-7---------------7---------------|-7---------------7---------------|

G|---------------------------------|---------------------------------|
D|-------------6---9-------6-------|-----------------9---------------|
A|-7-------7-----------------------|-7-----------7-------------------|
E|---------------------------------|---------------------------------|

G|---------------------------------|---------------------------------|
D|-7-------7-------7-------7-------|-7-----------7---7---7---7-------|
A|---------------------------------|---------------------------------|
E|---------------------------------|---------------------------------|

G|---------------------------------|---------------------------------|
D|-------------6---9-------6-------|-----------------9-------6-------|
A|-7-------------------------------|-7-------------------------------|
E|---------------------------------|---------------------------------|

G|---------13--------------13------|---------13----------13----------|
D|---------------------------------|---------------------------------|
A|---------------------------------|---------------------------------|
E|-7---------------7---------------|-7-------------------------------|

G|---------------------------------|---------------------------------|
D|-------------6---9-------6-------|---------------------------------|
A|-7-------------------------------|-7-------------------------------|
E|---------------------------------|---------------------------------|

VERSE

G|---------------------------------|---------------------------------|
D|---------------------------------|---------------------------------|
A|---------6-------9-------7---6---|---------------------------------|
E|-7-----------7-------7-----------|-7-------------------------------|

G|---------------------------------|---------------------------------|
D|---------6-------9-------7---6---|---------------------------------|
A|-7-----------7-------7-----------|-7-------------------------------|
E|---------------------------------|---------------------------------|

G|---------------------------------|---------------------------------|
D|---------------------------------|---------------------------------|
A|---------6-------9-------7---6---|---------------------------------|
E|-7-----------7-------7-----------|-7-------------------------------|

G|---------------------------------|---------------------------------|
D|---------6-------9-------7---6---|---------------------------------|
A|-7-----------7-------7-----------|-7-------------------------------|
E|---------------------------------|---------------------------------|

G|---------------------------------|---------------------------------|
D|---------------------------------|---------------------------------|
A|---------4-------7-------5---4---|---------------------------------|
E|-5-----------5-------5-----------|-5-------------------------------|

G|---------------------------------|---------------------------------|
D|---------6-------9-------7---6---|---------------------------------|
A|-7-----------7-------7-----------|-7-------------------------------|
E|---------------------------------|---------------------------------|

G|---------------------------------|---------------------------------|
D|---------------------------------|---------------------------------|
A|---------6-------9-------7---6---|---------------------------------|
E|-7-----------7-------7-----------|-7-------------------------------|

G|---------------------------------|---------------------------------|
D|---------6-------9-------7---6---|---------------------------------|
A|-7-----------7-------7-----------|-7-------7-------5-------4-------|
E|---------------------------------|---------------------------------|

VERSE

G|---------------------------------|---------------------------------|
D|---------------------------------|-9-----------9-----------9-------|
A|-----------------9-----------9---|-----------------9---------------|
E|-7-----------7-------------------|---------------------------------|

G|---------------------------------|---------------------------------|
D|-----------------9-----------9---|-----------------9---------------|
A|-7-----------7-----------7-------|-7-----------7-----------7-------|
E|---------------------------------|---------------------------------|

G|---------------------------------|---------------------------------|
D|---------------------------------|-9-----------9---9-------9-------|
A|-----------------9---------------|---------------------------------|
E|-7-----------7-------------------|---------------------------------|

G|---------------------------------|---------------------------------|
D|---------------------------------|-----------------4-------6-------|
A|-7-----------7---7-------7-------|-7-------7-----------------------|
E|---------------------------------|---------------------------------|

G|---------------------------------|---------------------------------|
D|-7-----------7-------------------|-7-----------7-----------7/------|
A|-----------------7-----------7---|-----------------7---------------|
E|---------------------------------|---------------------------------|

G|---------------------------------|---------------------------------|
D|-----------------9-----------9---|---------------------------------|
A|-7-----------7-------------------|-7-----------7---5-------4-------|
E|---------------------------------|---------------------------------|

G|---------------------------------|---------------------------------|
D|---------------------------------|---------------------------------|
A|-----------------9-----------9---|-----------------9---------------|
E|-7-----------7-----------7-------|-7-----------7-----------7-------|

G|---------------------------------|-------------9-------------------|
D|-----------------9---------------|-----6---9-----------------------|
A|-7-----------7-----------7-------|-7-----------------------7-------|
E|---------------------------------|---------------------------------|
Comments