Beatles - Sure To Fall In Love With You Chords & Tabs

 

Sure To Fall In Love With You Chords & Tabs

Beatles Chords & Tabs

Version: 2 Type: Bass Tab 0 ratings
1 star 2 stars 3 stars 4 stars 5 stars
comments

Sure To Fall In Love With You Bass Tab

SURE TO FALL (IN LOVE WITH YOU)

Written by Carl Lee Perkins, William E. Cantrell & Quinton Claunch
From The Beatles Live At The BBC album

Pop Go The Beatles #3 (June 18, 1963)


INTRO


G|---------------------------------|---------------------------------|
D|---------------------------------|-------------------------6-------|
A|---------------------------------|---------7-------9---------------|
E|---------------------------------|---------------------------------|


G|---------------------------------|---------------------------------|
D|-7-------------------------------|-----------------9---------------|
A|-----------------7---------------|-7-------------------------------|
E|---------------------------------|---------------------------------|


G|---------------------------------|---------------------------------|
D|-7-------------------------------|-------------------------6-------|
A|-----------------7---------------|-7---------------9---------------|
E|---------------------------------|---------------------------------|
                                                             Iím

VERSE


G|---------------------------------|-------------------------6-------|
D|-7-------------------------------|-7---------------9---------------|
A|-----------------7---------------|---------------------------------|
E|---------------------------------|---------------------------------|
   sure                    to        fall

G|-7-------------------------------|-7-------------------------------|
D|-----------------7---------------|-----------------7---------------|
A|---------------------------------|---------------------------------|
E|---------------------------------|---------------------------------|
   fall                    in        love                    Iím

G|---------------------------------|---------------------------------|
D|-7-------------------------------|-7-------7-------6-------4-------|
A|-----------------7---------------|---------------------------------|
E|---------------------------------|---------------------------------|
   sure                        to    fall    in      love    with

G|---------------------------------|---------------------------------|
D|-----------------9---------------|-------------------------6-------|
A|-7-------------------------------|-7-------7-------9---------------|
E|---------------------------------|---------------------------------|
   you                                                       You

VERSE


G|---------------------------------|-------------------------6-------|
D|-7-------------------------------|-7---------------9---------------|
A|-----------------7---------------|---------------------------------|
E|---------------------------------|---------------------------------|
   are                     so        sweet

G|-7-------------------------------|-7-------------------------------|
D|-----------------7---------------|-----------------7---------------|
A|---------------------------------|---------------------------------|
E|---------------------------------|---------------------------------|
   and                     so        near                    Iím

G|---------------------------------|---------------------------------|
D|-7---------------6-------4-------|-----------------9---------------|
A|---------------------------------|-7-------------------------------|
E|---------------------------------|---------------------------------|
   sure         to fall    in        love                    with

G|---------------------------------|---------------------------------|
D|-7-------------------------------|-7-------7-------6-------4-------|
A|-----------------7---------------|---------------------------------|
E|---------------------------------|---------------------------------|
   you                                                       So

BRIDGE


G|---------------------------------|---------------------------------|
D|---------6-------9-------6-------|---------6-------9-------6-------|
A|-7-------------------------------|-7-------------------------------|
E|---------------------------------|---------------------------------|
   hold                    me        tight                   let  tonight

G|---------------------------------|---------------------------------|
D|---------4-------7-------4-------|-7---------------6-------7-------|
A|-5-------------------------------|---------------------------------|
E|---------------------------------|---------------------------------|
                   be      the       night

G|---------------------------------|---------------------------------|
D|-9-------------------------------|-9-------------------------------|
A|-----------------9---------------|-----------------9---------------|
E|---------------------------------|---------------------------------|
   darling                           donít ever              let me

G|---------------------------------|---------------------------------|
D|-----------------9---------------|-------------------------6-------|
A|-7-----------7-------------------|-7---------------9---------------|
E|---------------------------------|---------------------------------|
   go

VERSE


G|---------------------------------|---------------------------------|
D|-7-------------------------------|---------------------------------|
A|-----------------7---------------|-------------------------4-------|
E|---------------------------------|-5---------------7---------------|
   Loving                            you             is      the
[ Tab from: http://www.guitartabs.cc/tabs/b/beatles/sure_to_fall_in_love_with_you_btab_ver_2.html ]
G|---------------------------------|-7-------------------------------|
D|-----------------7---------------|-----------------7---------------|
A|-5-------------------------------|---------------------------------|
E|---------------------------------|---------------------------------|
   natural         thing       to    do                      I

G|---------------------------------|---------------------------------|
D|-7---------------6-------4-------|-----------------9---------------|
A|---------------------------------|-7-------------------------------|
E|---------------------------------|---------------------------------|
   want    you     for     the       rest            of      my

G|---------------------------------|---------------------------------|
D|-7-------------------------------|-7-----------------------6-------|
A|-----------------7---------------|---------7-------9---------------|
E|---------------------------------|---------------------------------|
   life

GUITAR SOLO


G|---------------------------------|---------------------------------|
D|-7-------------------------------|-7-------------------------------|
A|--------------4--7-------4-------|--------------4--7-------7-------|
E|---------------------------------|---------------------------------|


G|-7-------7-----------------------|-7-------------------------------|
D|-----------------7---------------|-----------------7-------7-------|
A|---------------------------------|---------------------------------|
E|---------------------------------|---------------------------------|


G|---------------------------------|---------------------------------|
D|-7-------------------------------|-7-------------------------------|
A|--------------4--7-------4-------|--------------4--7---------------|
E|---------------------------------|---------------------------------|


G|---------------------------------|---------------------------------|
D|-----------------9-------9-------|-------------------------6-------|
A|-7-------------------------------|-7-------7-------9---------------|
E|---------------------------------|---------------------------------|


G|---------------------------------|---------------------------------|
D|-7-------------------------------|-7-------------------------------|
A|--------------4--7-------4-------|-------------------------4-------|
E|---------------------------------|---------5-------7---------------|


G|---------------------------------|---------------------------------|
D|-----------------7-------7-------|--------------4--7-------4-------|
A|-5-------------------------------|-5-------------------------------|
E|---------------------------------|---------------------------------|


G|---------------------------------|---------------------------------|
D|-7-------------------------------|-----------------9-------9-------|
A|--------------4--7-------4-------|-7-------------------------------|
E|---------------------------------|---------------------------------|


G|---------------------------------|---------------------------------|
D|-7-------------------------------|-7-------7-------6-------4-------|
A|-----------------7-------7-------|---------------------------------|
E|---------------------------------|---------------------------------|
                                                             So

BRIDGE


G|---------------------------------|---------------------------------|
D|---------6-------9-------6-------|---------6-------9-------6-------|
A|-7-------------------------------|-7-------------------------------|
E|---------------------------------|---------------------------------|
   hold                    me        tight                   let  tonight

G|---------------------------------|---------------------------------|
D|---------4-------7-------4-------|-7---------------6-------7-------|
A|-5-------------------------------|---------------------------------|
E|---------------------------------|---------------------------------|
                   be      the       night

G|---------------------------------|---------------------------------|
D|-9-------9-----------------------|-9-------------------------------|
A|-----------------9---------------|-----------------9---------------|
E|---------------------------------|---------------------------------|
   darling                           donít ever              let me

G|---------------------------------|---------------------------------|
D|-----------------9---------------|-------------------------6-------|
A|-7-----------------------7-------|-7-------7-------9---------------|
E|---------------------------------|---------------------------------|
   go

VERSE


G|---------------------------------|---------------------------------|
D|-7-------------------------------|-7-------------------------------|
A|-----------------7---------------|-------------------------4-------|
E|---------------------------------|-----------------7---------------|
   Loving                            you             is      the

G|---------------------------------|-7-------------------------------|
D|-----------------7---------------|-----------------7---------------|
A|-5-------------------------------|---------------------------------|
E|---------------------------------|---------------------------------|
   natural         thing       to    do                      I

G|---------------------------------|---------------------------------|
D|-7---------------6-------4-------|-----------------9---------------|
A|---------------------------------|-7-------------------------------|
E|---------------------------------|---------------------------------|
   want    you     for     the       rest            of      my

G|---------------------------------|---------------------------------|
D|-7-------------------------------|-7-------------------------------|
A|-----------------7-------7-------|---------------------------------|
E|---------------------------------|---------------------------------|
   life
Comments