Beatles - Sun King Chords & Tabs

 

Sun King Chords & Tabs

Beatles Chords & Tabs

Version: 1 Type: Tab 1 rating
1 star 2 stars 3 stars 4 stars 5 stars
comments

Sun King Tab

   
"Sun King"  The Beatles,  from Abbey Road
I just tabbed the intro, because that's the only cool guitar part.
Here ya go:

E|------------------------------------------------------------------|
B|------------------------------------------------------------------|
G|---------2--------------------------------------------------------|
D|---------2--------------------------------------------------------|
A|--2--2h4---4p2-----7--7---------------7-7-7-----------------------|
E|------------------------------0-----------------------------------|

E|------------------------------------------------------------------|
B|------------------------------------------------------------------|
G|---------2--------------------------------------------------------|
D|---------2--------------------------------------------------------|
A|--2--2h4---4p2-----7--7-----7-7-7---------------------------------|
E|-------------------------0----------0--4--7-----------------------|

E|------------------------------------------------------------------|
B|---5-----7----5-----7---5-----7----5-----/9-----------------------|
G|-----4h6---6----4h6---6---4h6----6---4h6----8--9------11----------|
D|-------------------------------------------------9h11----11-------|
A|------------------------------------------------------------------|
E|------------------------------------------------------------------|

E|------------------------------------------------------------------|
B|------------------------------------------------------------------|
G|---------2--------------------------------------------------------|
D|---------2--------------------------------------------------------|
A|-2--2h4-----4p2------7--------------------------------------------|
E|------------------------4--5--7--7--------------------------------|
[ Tab from: http://www.guitartabs.cc/tabs/b/beatles/sun_king_tab.html ]
E|------------------------------------------------------------------|
B|---5-----7----5-----7---5-----7----5-----/9-----------------------|
G|-----4h6---6----4h6---6---4h6----6---4h6----8--9------11----------|
D|-------------------------------------------------9h11----11-------|
A|------------------------------------------------------------------|
E|------------------------------------------------------------------|

E|------------------------------------------------------------------|
B|------------------------------------------------------------------|
G|---------2--------------------------------------------------------|
D|---------2--------------------------------------------------------|
A|-2--2h4-----4p2------7--------------------------------------------|
E|------------------------4--5--7--7--------------------------------|
                          E     E an octave up
E|--2-2-2-2---2--3--4-----0-----12----------------------------------|
B|--2-2-2-2---2--3--4-----0-----12----------------------------------|
G|--2-2-2-2---2--3--4-----1-----13----------------------------------|
D|------------------------2-----14----------------------------------|
A|------------------------2-----14----------------------------------|
E|------------------------0-----12----------------------------------|
     Dm
E|---10---------------13--12--10------------------------------------|
B|---10------------10-------------10--13----------------------------|
G|---10-------------------------------------------------------------|
D|---12-------------------------------------------------------------|
A|---12-------------------------------------------------------------|
E|---10-------------------------------------------------------------|

That's all for the intro... after that the chords are fine.
Hope you enjoy it!   PEACE!   
                               ~Aaron
Comments