Beatles - Strawberry Fields Forever Chords & Tabs

 

Strawberry Fields Forever Chords & Tabs

Beatles Chords & Tabs

Version: 2 Type: Bass Tab 0 ratings
1 star 2 stars 3 stars 4 stars 5 stars
comments

Strawberry Fields Forever Bass Tab

   
-------------------------------------------------------------------------------
			     Strawberry Fields Forever - The Beatles 
-------------------------------------------------------------------------------

Tabbed By : R8:31b
e-mail: 

Tuning: Standard


		4 Bar Rest Then:
G|--------------|--------------|------------|------------5-|
D|--3-----------|--------------|--3-------3-|-3------------|
A|--------------|--------------|------------|--------------|
E|--------------|--------------|------------|--------------|

G|--------------|-------------|-------------|--------------|
D|-5------------|-5-----5-----|-1--1--3--5--|--5---5---5---|
A|--------------|----------8--|-------------|--------------|
E|--------------|-------------|-------------|--------------|

G|--8---7---5---|-------------|-------------|--------------|
D|--------------|--8----------|--3----------|--3---------3-|
A|--------------|-------------|-------------|--------------|
E|--------------|-------------|-------------|--------------|

G|-------------|-----3------3-|-------------|-3---2--------|
D|-5----3------|-1-----1-1-1--|-1------3----|---------5--3-|
A|-------------|--------------|-------------|--------------|
E|-------------|--------------|-------------|--------------|

G|-------------|--8---7-5-----|
D|-1----3------|---------8----|
A|-------------|--------------|
E|-------------|--------------|

G|--3----------|--------------|--------5----|--------------|
D|--3----------|-------8////////3---6----6--|-----6-----6--|
A|-------------|--------------|-------------|--8-----6-----|
E|-------------|--------------|-------------|--------------|

G|-------------|--------------|-------------|-----4--5--7--|
D|--5----------|--------------|-------------|--5-----------|
A|-------------|--------------|----6----8---|--------------|
E|-------------|--------------|-------------|--------------|

G|--/8----/8\\\|--------------|
D|-------------|--------------|	4 Bars of Rest
A|-------------|-1------------|
E|-------------|--------------|

G|-------------|--------------|--3----------|-----------------|
D|--------5--3-|-1------3-----|-------5--3--|-1-1-1-1--3-3-3-3|
A|-------------|--------------|-------------|-----------------|
E|-------------|--------------|-------------|-----------------|
[ Tab from: http://www.guitartabs.cc/tabs/b/beatles/strawberry_fields_forever_btab_ver_2.html ]
G|---0-3-0---------|----------|-------------|-------5------|------------|
D|-1---------0-3-0-|----------|-------------|-3--6-----6---|-3--6-----6-|
A|---------1-------|-1--------|-------------|--------------|-------6----|
E|-----------------|----------|--------8//////-------------|------------|

G|-------------|--------------|-------------|-----4--5--7--|
D|-------------|--------------|---1------3--|--5-----------|
A|-5-----------|--------------|-------------|--------------|
E|-------------|--------------|-------------|--------------|

G|--/8----/8\\\|--3-----------|
D|-------------|--------------|	4 Bars of Rest
A|-------------|--------------|
E|-------------|--------------|

G|------------|--------------2-|-3-------------|------------------|
D|-------5--3-|-1--3--5--3--5--|---3---0--5--3-|-1-1-1--1-3-3-3-3-|
A|------------|----------------|---------------|------------------|
E|------------|----------------|---------------|------------------|

G|---3----------|--------------|---------------|----5--10--5----5-|
D|1-5-5-0-3-1-0-|--------------|---------------|--6--6-------6----|
A|-----1-------3|-1------------|-1-------1\\\\\\\8----------------|
E|--------------|--------------|---------------|------------------|

G|---------------|--------------------|-----------------|
D|-3-3-3-3-1-1-1-|-0-0-0-0-0-0--0--0--|-0-0-0-0-0-0-0-0-|
A|---------------|--------------------|-----------------|
E|---------------|--------------------|-----------------|

G|------------|----4--5--7--|--/8----/8--|---3--------|------------|
D|--1------3--|-5-----------|------------|---------5--|------------|
A|------------|-------------|------------|------------|--/6----/6--|
E|------------|-------------|------------|------------|------------|

G|------------|--/8----/10--|--/8--------|------------|------------|
D|------------|-------------|------------|----8\13-12-|------------|
A|--1---------|-------------|------------|------------|-13-13------|
E|------------|-------------|------------|------------|------------|

G|------15--------|-12------------------|----------15--15-|--------------|
D|---------13--15-|---13----12-13-15----|-----------------|--------------|
A|--13------------|------15----------13-|--13--13---------|--------------|
E|----------------|---------------------|-----------------|--------------|

G|-------------------------------------|
D|-12-13-12-13-12-13-12-13-12-13-12-13-|  End Bass
A|-------------------------------------|
E|-------------------------------------|  




I'm fairly certain that this is the correct bass tab for this song. however it may be the 
cello tab for it as well. In any event play this on your bass and it should song pretty 
dang close to the song.
[ the cello is the bass of the classical world...]
Comments