Beatles - Something Chords & Tabs

 

Something Chords & Tabs

Beatles Chords & Tabs

Version: 8 Type: Tab 0 ratings
1 star 2 stars 3 stars 4 stars 5 stars
comments

Something Tab

   
-------------------------------------------------------------------------------
                             SOMETHING -  GEORGE HARRISON
-------------------------------------------------------------------------------

Tabbed By : Jp F
e-mail: Jpf418@netscape.net

Tuning: Standard EADG

Id like to say that the other tab is correct except for a small riff at 1:14, which is what Im tabbing

             "You're asking me will my love grow                 I dont know
[ Tab from: http://www.guitartabs.cc/tabs/b/beatles/something_tab_ver_8.html ]
G|-------------9/11-9------------9/11-9------------9/11-9---------9/11-9-----|
D|------7-7----------------6-6-----------------------------------------------|
A|-------------------------------------------9-9-------------7-7-------------|
E|---------------------------------------------------------------------------|     
    I........... dont know
G|---------------------------------------------------------------------------|
D|---------4-4--5-5-5-5------------------------------------------------------|
A|----5-5--------------------------------------------------------------------|
E|---------------------------5-4-3-2-1-0-------------------------------------|
            You stick around now it may show              I dont know
G|---------------------------------------------------------------------------|
D|-----------2-2---------------2/4-2----------2/4-2----------2/4-2-----------|
A|---------------------------------------------------------------------------|
E|-----5-5-------------4-4--------------2-2------------0-0-------------------|
    I..........dont know
G|-----------------------------5-4-------------------------------------------|
D|--------4-4---5-5-5-5-------------5-7--------------------------------------|
A|---5-5---------------------------------5-7-3-------------------------------|
E|---------------------------------------------------------------------------|

After this, the other tab is pretty much exact.

PS: first tab, so be gentle


                     ~George Harrison~
                   All Things Must Pass
                        1943-2001


| /  slide up
| \  slide down
| h  hammer-on
| p  pull-off
| ~  vibrato
| +  harmonic
| x  Mute note
===============================================================================
Comments