Beatles - Soldier Of Love Chords & Tabs

 

Soldier Of Love Chords & Tabs

Beatles Chords & Tabs

Version: 2 Type: Bass Tab 0 ratings
1 star 2 stars 3 stars 4 stars 5 stars
comments

Soldier Of Love Bass Tab

SOLDIER OF LOVE

Written by Buzz Cason & Tony Moon

INTRO
  t=128
G|---------------------------------|---------------------------------|
D|---------------------------------|-----------------------------2---|
A|---------------------------------|---------------------3---5-------|
E|---------------------------------|---------------------------------|

G|---------------------------------|---------------------------------|
D|-3-------------------3-------2---|-----------------------------2---|
A|-------------3-------------------|-5-------------------3---5-------|
E|---------------------------------|-------------5-------------------|

G|---------------------------------|---------------------------------|
D|-3-------------------3-------2---|-----------------------------2---|
A|-------------3-------------------|-5-------------------3---5-------|
E|---------------------------------|-------------5-------------------|

G|---------------------------------|---------------------------------|
D|-3-------------------------------|-3-------------------------------|
A|-------------3-------3-------5---|---------------------------------|
E|---------------------------------|---------------------------------|

VERSE

G|---------------------------------|---------------------------------|
D|---------------------------------|---------------------------------|
A|-5-------------------------------|-5-----------------------5---3---|
E|-------------5---5-----------5---|-------------5---5---------------|

G|---------------------------------|---------------------------------|
D|-3-----------------------3-------|-3-----------------------3-------|
A|-------------3---------------5---|-------------3-------------------|
E|---------------------------------|---------------------------------|

G|---------------------------------|---------------------------------|
D|---------------------------------|---------------------------------|
A|-5-------------------------------|-5-----------------------5---3---|
E|-------------5---5-----------5---|-------------5-------5-----------|

G|---------------------------------|---------------------------------|
D|-3-----------------------3-------|-3-----------------------3-------|
A|-------------3---------------5---|-------------3-------------------|
E|---------------------------------|---------------------------------|

G|---------------------------------|---------------------------------|
D|---------------------------------|-5-----------5---5---------------|
A|-5-----------5---5---------------|---------------------------------|
E|---------------------------------|---------------------------------|

G|---------------------------------|---------------------------------|
D|-3-----------------------3-------|-3-----------------------3-------|
A|-------------3---------------5---|-------------3-------3-------5---|
E|---------------------------------|---------------------------------|

BRIDGE

G|---------------------------------|---------------------------------|
D|-3-----------------------3-------|---------------------------------|
A|-------------3-------------------|-------------4-----------7-------|
E|---------------------------------|-5-------------------------------|

G|---------------------------------|---------------------------------|
D|---------------------------------|-3-----------------------3-------|
A|---------------------------------|-------------3---------------5---|
E|-6-----------6---8---------------|---------------------------------|

G|---------------------------------|---------------------------------|
D|-3-----------------------3-------|---------------------------------|
A|-------------3-------------------|-------------4-----------7-------|
E|---------------------------------|-5-------------------------------|

G|---------------------------------|---------------------------------|
D|---------------------------------|-3-------------------------------|
A|---------------------------------|---------------------------------|
E|-6-----------6---8---------------|---------------------------------|

VERSE

G|---------------------------------|---------------------------------|
D|---------------------------------|---------------------------------|
A|-5-------------------------------|-5-----------------------5---3---|
E|-------------5---5-----------5---|-------------5---5---------------|
[ Tab from: http://www.guitartabs.cc/tabs/b/beatles/soldier_of_love_btab_ver_2.html ]
G|---------------------------------|---------------------------------|
D|-3-----------------------3-------|-3-----------------------3-------|
A|-------------3---------------5---|-------------3-------------------|
E|---------------------------------|---------------------------------|

G|---------------------------------|---------------------------------|
D|---------------------------------|---------------------------------|
A|-5-------------------------------|-5-----------------------5---3---|
E|-------------5---5-----------5---|-------------5-------------------|

G|---------------------------------|---------------------------------|
D|-3-----------------------3-------|-3-----------------------3-------|
A|-------------3---------------5---|-------------3-------------------|
E|---------------------------------|---------------------------------|

G|---------------------------------|---------------------------------|
D|---------------------------------|-5-----------5---5-------5-------|
A|-5-----------5---5---------------|---------------------------------|
E|---------------------------------|---------------------------------|

G|---------------------------------|---------------------------------|
D|-3-----------------------3-------|-3-----------------------3-------|
A|-------------3---------------5---|-------------3-------3-------5---|
E|---------------------------------|---------------------------------|

BRIDGE

G|---------------------------------|---------------------------------|
D|-3-----------------------3-------|---------------------------------|
A|-------------3-------------------|-------------4-----------7-------|
E|---------------------------------|-5-------------------------------|

G|---------------------------------|---------------------------------|
D|---------------------------------|-3-----------------------3-------|
A|---------------------------------|-------------3-------3-------5---|
E|-6-----------6---8---------------|---------------------------------|

G|---------------------------------|---------------------------------|
D|-3-----------------------3-------|---------------------------------|
A|-------------3-------------------|-------------4-----------7-------|
E|---------------------------------|-5-------------------------------|

G|---------------------------------|---------------------------------|
D|---------------------------------|---------------------------------|
A|---------------------------------|-8-------------------------------|
E|-6-----------6---8---------------|---------------------------------|

VERSE

G|---------------------------------|---------------------------------|
D|---------------------------------|---------------------------------|
A|-5-------------------------------|-5-----------------------5---3---|
E|-------------5---5-----------5---|-------------5-------------------|

G|---------------------------------|---------------------------------|
D|-3-----------------------3-------|-3-----------------------3-------|
A|-------------3---------------5---|-------------3-------------------|
E|---------------------------------|---------------------------------|

G|---------------------------------|---------------------------------|
D|---------------------------------|---------------------------------|
A|-5-------------------------------|-5-----------------------5---3---|
E|-------------5---5-----------5---|-------------5-------------------|

G|---------------------------------|---------------------------------|
D|-3-----------------------3-------|-3-----------------------3-------|
A|-------------3---------------5---|-------------3-------------------|
E|---------------------------------|---------------------------------|

G|---------------------------------|---------------------------------|
D|---------------------------------|-5-----------------------5-------|
A|-5-----------5---5-------5-------|-------------5-------------------|
E|---------------------------------|---------------------------------|

OUTRO

G|---------------------------------|---------------------------------|
D|-3-----------------------3-------|---------------------------------|
A|-------------3-------------------|-5-----------------------5---3---|
E|---------------------------------|-------------5-------------------|

G|---------------------------------|---------------------------------|
D|-3-----------------------3-------|---------------------------------|
A|-------------3-------------------|-5-----------------------5---3---|
E|---------------------------------|-------------5-------------------|

G|---------------------------------|---------------------------------|
D|-3-----------------------3-------|---------------------------------|
A|-------------3-------------------|-5-----------------------5---3---|
E|---------------------------------|-------------5-------------------|
                                                             FADE OUT
Comments