Beatles - Shes Leaving Home Chords & Tabs

 

Shes Leaving Home Chords & Tabs

Beatles Chords & Tabs

Version: 2 Type: Bass Tab 0 ratings
1 star 2 stars 3 stars 4 stars 5 stars
comments

Shes Leaving Home Bass Tab

SHE’S LEAVING HOME

VERSE

G|-------------------------|-------------------------|
D|-2-----------------------|-------------------------|
A|-------------------------|-2-----------------------|
E|-------------------------|-------------------------|

G|-------------------------|-------------------------|
D|-4-----------------------|-------------------------|
A|-------------------------|-4-----------------------|
E|-------------------------|-------------------------|

G|-------------------------|-------------------------|
D|-6-----------------------|-------------------------|
A|-------------------------|-4-------6-------7-------|
E|-------------------------|-------------------------|

G|-----------------3-------|-------------------------|
D|-4-------6---------------|-6-------4---------------|
A|-------------------------|-----------------7-------|
E|-------------------------|-------------------------|

G|-------------------------|-------------------------|
D|-------------------------|-------------------------|
A|-------------------------|-------------------------|
E|-7-----------------------|-------------------------|

G|-------------------------|-------------------------|
D|-------------------------|-------------------------|
A|-------------------------|-------------------------|
E|-7-----------------------|-7---7-------7-----------|

G|-------------------------|-------------------------|
D|-------------------------|-------------------------|
A|-------------------------|-------------------------|
E|-7-----------------------|-------------------------|

G|-------------------------|-------------------------|
D|-------------------------|-------------------------|
A|-------------------------|-------------------------|
E|-7---------------7-------|-7---7-------7-----------|

VERSE

G|-------------------------|-------------------------|
D|-2-----------------------|-------------------------|
A|-------------------------|-2-----------------------|
E|-------------------------|-------------------------|

G|-------------------------|-------------------------|
D|-4-----------------------|-------------------------|
A|-------------------------|-4-----------------------|
E|-------------------------|-------------------------|

G|-------------------------|-------------------------|
D|-6-----------------------|-------------------------|
A|-------------------------|-4-------6-------7-------|
E|-------------------------|-------------------------|

G|-----------------3-------|-------------------------|
D|-4-------6---------------|-6-------4---------------|
A|-------------------------|-----------------7-------|
E|-------------------------|-------------------------|

G|-------------------------|-------------------------|
D|-------------------------|-------------------------|
A|-------------------------|-------------------------|
E|-7-----------------------|-------------------------|

G|-------------------------|-------------------------|
D|-------------------------|-------------------------|
A|-------------------------|-------------------------|
E|-7-----------------------|-7---7-------7-----------|

G|-------------------------|-------------------------|
D|-------------------------|-------------------------|
A|-------------------------|-------------------------|
E|-7-----------------------|-------------------------|

G|-------------------------|-------------------------|
D|-------------------------|-------------------------|
A|-------------------------|-------------------------|
E|-7---------------7-------|-7---7-------7-----------|

CHORUS

G|-------------------------|-------------------------|
D|-2-----------------------|-------------------------|
A|-------------------------|-------------------------|
E|-------------------------|-------------------------|

G|-------------------------|-------------------------|
D|-------------------------|-2-----------2-----------|
A|-------------------------|-----2---2---------------|
E|-------------------------|-------------------------|

G|-------------------------|-------------------------|
D|-2-----------------------|-------------------------|
A|-------------------------|-------------------------|
E|-------------------------|-------------------------|

G|-------------------------|-------------------------|
D|-------------------------|-2-----------2-----------|
A|-------------------------|-----2---2---------------|
E|-------------------------|-------------------------|

G|-------------------------|-------------------------|
D|-2-------2-------2-------|-2-------2-------2-------|
A|-------------------------|-------------------------|
E|-------------------------|-------------------------|

G|-4-------4-------4-------|-4-------4-------4-------|
D|-------------------------|-------------------------|
A|-------------------------|-------------------------|
E|-------------------------|-------------------------|

G|-------------------------|-5---------------5-------|
D|-----------------6-------|---------6---------------|
A|-4-----------------------|-------------------------|
E|-------------------------|-------------------------|

G|-------------------------|-5---------------5-------|
D|-----------------6-------|---------6---------------|
A|-4-----------------------|-------------------------|
E|-------------------------|-------------------------|

G|-------------------------|-5---------------5-------|
D|-----------------6-------|---------6---------------|
A|-4-----------------------|-------------------------|
E|-------------------------|-------------------------|

G|-------------------------|
D|-4-------4-------4-------|
A|-------------------------|
E|-------------------------|

VERSE

G|-------------------------|-------------------------|
D|-------------------------|-0-------3---------------|
A|-----------------2-------|-----------------2-------|
E|-0-------4---------------|-------------------------|

G|-------------------------|---------2-------5-------|
D|-------------------------|-2-----------------------|
A|-----------------4-------|-------------------------|
E|-2-------5---------------|-------------------------|

G|-------------------------|-------------------------|
D|-------------------------|-------------------------|
A|-4-----------------------|-4-------6-------7-------|
E|-------------------------|-------------------------|

G|-----------------3-------|-------------------------|
D|-4-------6---------------|-6-------4---------------|
A|-------------------------|-----------------7-------|
E|-------------------------|-------------------------|

G|-------------------------|-------------------------|
D|-------------------------|-------------------------|
A|-2-----------------------|-2-----------------------|
E|-------------------------|-------------------------|

G|-------------------------|-------------------------|
D|-------------------------|-------------------------|
A|-2-----------------------|-2---2-------2-----------|
E|-------------------------|-------------------------|

G|-------------------------|-------------------------|
D|-------------------------|-------------------------|
A|-2-----------------------|-2-----------------------|
E|-------------------------|-------------------------|

G|-------------------------|-------------------------|
D|-------------------------|-------------------------|
A|-2---------------2-------|-2---2-------2-----------|
E|-------------------------|-------------------------|

VERSE

G|-------------------------|-------------------------|
D|-------------------------|-0-------3---------------|
A|-----------------2-------|-----------------2-------|
E|-0-------4---------------|-------------------------|

G|-------------------------|---------2-------5-------|
D|-------------------------|-2-----------------------|
A|-----------------4-------|-------------------------|
E|-2-------5---------------|-------------------------|
[ Tab from: http://www.guitartabs.cc/tabs/b/beatles/shes_leaving_home_btab_ver_2.html ]
G|-------------------------|-------------------------|
D|-------------------------|-------------------------|
A|-4-----------------------|-4-------6-------7-------|
E|-------------------------|-------------------------|

G|-----------------3-------|-------------------------|
D|-4-------6---------------|-4---------------4-------|
A|-------------------------|-------------------------|
E|-------------------------|-------------------------|

G|-------------------------|-------------------------|
D|-------------------------|-------------------------|
A|-2---------------2-------|-2-----------------------|
E|-------------------------|-------------------------|

G|-------------------------|-------------------------|
D|-------------------------|-------------------------|
A|-2---------------2-------|-2-----------------------|
E|-------------------------|-------------------------|

G|-------------------------|-------------------------|
D|-------------------------|-------------------------|
A|-2-------2-------2-------|-2-------2-------2-------|
E|-------------------------|-------------------------|

G|-------------------------|-------------------------|
D|-------------------------|-------------------------|
A|-2-------2-------2-------|-2-------2-------2-------|
E|-------------------------|-------------------------|

CHORUS

G|-------------------------|-------------------------|
D|-2-----------------------|-------------------------|
A|-------------------------|-------------------------|
E|-------------------------|-------------------------|

G|-------------------------|-------------------------|
D|-------------------------|-2---2-------2---2-------|
A|-------------------------|-------------------------|
E|-------------------------|-------------------------|

G|-------------------------|-------------------------|
D|-2-----------------------|-------------------------|
A|-------------------------|-------------------------|
E|-------------------------|-------------------------|

G|-------------------------|-------------------------|
D|-------------------------|-2---2-------2---2-------|
A|-------------------------|-------------------------|
E|-------------------------|-------------------------|

G|-------------------------|-------------------------|
D|-2-------2-------2-------|-2-------2-------2-------|
A|-------------------------|-------------------------|
E|-------------------------|-------------------------|

G|-4-------4-------4-------|-4-------4-------4-------|
D|-------------------------|-------------------------|
A|-------------------------|-------------------------|
E|-------------------------|-------------------------|

G|-------------------------|-5---------------5-------|
D|-----------------6-------|---------6---------------|
A|-4-----------------------|-------------------------|
E|-------------------------|-------------------------|

G|-------------------------|-5---------------5-------|
D|-----------------6-------|---------6---------------|
A|-4-----------------------|-------------------------|
E|-------------------------|-------------------------|

G|-------------------------|-5---------------5-------|
D|-----------------6-------|---------6---------------|
A|-4-----------------------|-------------------------|
E|-------------------------|-------------------------|

G|-------------------------|
D|-4-------4-------4-------|
A|-------------------------|
E|-------------------------|

VERSE

G|-------------------------|-------------------------|
D|-2-----------------------|-------------------------|
A|-------------------------|-2-----------------------|
E|-------------------------|-------------------------|

G|-------------------------|-------------------------|
D|-4-----------------------|-------------------------|
A|-------------------------|-4-----------------------|
E|-------------------------|-------------------------|

G|-------------------------|-------------------------|
D|-6-----------------------|-------------------------|
A|-------------------------|-4-------6-------7-------|
E|-------------------------|-------------------------|

G|-----------------3-------|-------------------------|
D|-4-------6---------------|-6-------4---------------|
A|-------------------------|-----------------7-------|
E|-------------------------|-------------------------|

G|-------------------------|-------------------------|
D|-------------------------|-------------------------|
A|-------------------------|-------------------------|
E|-7-----------------------|-7-----------------------|

G|-------------------------|-------------------------|
D|-------------------------|-------------------------|
A|-------------------------|-------------------------|
E|-7-----------------------|-7---7-------7-----------|

G|-------------------------|-------------------------|
D|-------------------------|-------------------------|
A|-------------------------|-------------------------|
E|-7-------7-------7-------|-7-------7-------7-------|

G|-------------------------|-------------------------|
D|-------------------------|---------9---------------|
A|-------------------------|-----9-------9-------9---|
E|-7-------7-------7-------|-7---------------7-------|

CHORUS

G|-------------------------|-------------------------|
D|-2-----------------------|-------------------------|
A|-------------------------|-------------------------|
E|-------------------------|-------------------------|

G|-------------------------|-------------------------|
D|-------------------------|-2-----2-2-------2-----2-|
A|-------------------------|-------------------------|
E|-------------------------|-------------------------|

G|-------------------------|-------------------------|
D|-2-----------------------|-------------------------|
A|-------------------------|-------------------------|
E|-------------------------|-------------------------|

G|-------------------------|-------------------------|
D|-------------------------|-2-----2-2-------2-----2-|
A|-------------------------|-------------------------|
E|-------------------------|-------------------------|

G|-------------------------|-------------------------|
D|-2-----------------------|-------------------------|
A|-------------------------|-------------------------|
E|-------------------------|-------------------------|

G|-4-----------------------|-4-----4-4-------4-------|
D|-------------------------|-------------------------|
A|-------------------------|-------------------------|
E|-------------------------|-------------------------|

G|-------------------------|-------------------------|
D|-------------------------|-------------------------|
A|-4-------4---------------|-4-------4---------------|
E|-------------------------|-------------------------|

G|-------------------------|-------------------------|
D|-4-------4-------4-------|-4-------4-------4-------|
A|-------------------------|-------------------------|
E|-------------------------|-------------------------|

G|-------------------------|-------------------------|
D|-------------------------|-------------------------|
A|-4-------4---------------|-4-------4---------------|
E|-------------------------|-------------------------|

G|-------------------------|-------------------------|
D|-4-------4-------4-------|-4-------4-------4-------|
A|-------------------------|-------------------------|
E|-------------------------|-------------------------|

G|-------------------------|-------------------------|
D|-------------------------|-------------------------|
A|---------4-------4-------|---------4-------4-------|
E|-------------------------|-------------------------|

G|-------------------------|-------------------------|
D|---------4-------4-------|-4-------4-------4-------|
A|-------------------------|-------------------------|
E|-------------------------|-------------------------|

G|-------------------------|-------------------------|
D|-------------------------|-------------------------|
A|-0-----------------------|-------------------------|
E|-------------------------|-------------------------|

G|-------------------------|
D|-------------------------|
A|-------------------------|
E|-0-----------------------|
Comments