Beatles - She's A Woman (intro Solo) Chords & Tabs

 

She's A Woman (intro Solo) Chords & Tabs

Beatles Chords & Tabs

Version: 1 Type: Tab 1 rating
1 star 2 stars 3 stars 4 stars 5 stars
comments

She's A Woman (intro Solo) Tab

   
----------------------------------PLEASE NOTE---------------------------------#
#This file is the author's own work and represents their interpretation of the #
#song. You may only use this file for private study, scholarship, or research. #
#------------------------------------------------------------------------------#

TAB: She's A Woman (intro solo)
MUSIC BY: The Beatles (From the I Feel Fine single)  
TABBED BY: The Beatles Central Team (jpgr_beatles@yahoo.com) 
 
 
Intro: 
 
 E7 / / / /   D7 / / / /   A7 / / / / / / / / 
 
 E|-12-       E|-10-       E|-5- 
 B|-15-       B|-13-       B|-8-   
 G|-13-       G|-11-       G|-6- 
 D|-12-       D|-10-       D|-5-   
 A|-14-       A|-12-       A|-7-  
 E|-12-       E|-10-       E|-5- 

ASolo

E|---------8-----------5-----------|-------------------------------- 
B|---------------------------------|-------------------------------- 
G|---------------------------------|-7b9r7-------7b9r7-------5------ 
D|-7-------------------------------|-------------------------------- 
A|---------------------------------|-------------------------------- 
E|---------------------------------|-------------------------------- 
   ^       ^ 

[ Tab from: http://www.guitartabs.cc/tabs/b/beatles/shes_a_woman_intro_solo_tab.html ]
  A7 
E|---------8-----------5-----------|-------------------------------- 
B|---------------------------------|-------------------------------- 
G|---------------------------------|-7b9r7-------7b9r7-------5------ 
D|-7-------------------------------|-------------------------------- 
A|---------------------------------|-------------------------------- 
E|---------------------------------|-------------------------------- 
   ^       ^       ^       ^         ^       ^       ^       ^        
 
   D7 
E|---------10------------8---------|-7-----7-----7\--5-------------- 
B|---------------------------------|-------------------------------- 
G|-/11--------------9---------7----|-7-----7-----7\--5-------------- 
D|---------------------------------|------------------------------- 
A|---------------------------------|-------------------------------- 
E|---------------------------------|-------------------------------- 
   ^       ^       ^       ^         ^       ^       ^       ^                    
 
   A7 
E|---------5-------------3---------|-2---2-------2---0-------------- 
B|---------------------------------|-------------------------------- 
G|-/6--------------4----------2----|-2---2-------2---2-------------- 
D|---------------------------------|-------------------------------- 
A|---------------------------------|-------------------------------- 
E|---------------------------------|-------------------------------- 
   ^       ^       ^       ^         ^       ^       ^       ^       
 
   E7 
E|---------------------7-----------|-----10-----10\--8-------------- 
B|---------3-----------------------|-------------------------------- 
G|-/4-------------/7-----------7---|-/11--------11\--9-------------- 
D|---------------------------------|-------------------------------- 
A|---------------------------------|-------------------------------- 
E|---------------------------------|-------------------------------- 
   ^       ^       ^       ^         ^       ^       ^       ^       
 
    A7 
E|---------8-----------5-----------|-------------------------------- 
B|---------------------------------|-------------------------------- 
G|---------------------------------|-7b9r7-------7b9r7-------5------ 
D|---------------------------------|-------------------------------- 
A|---------------------------------|-------------------------------- 
E|---------------------------------|-------------------------------- 
   ^       ^       ^       ^         ^       ^       ^       ^      
 
Chorus: 
 
C#m                F# 
She's a woman who understands 
 
C#m                    D       E  
She's a woman who loves her man 

#----------------------------------PLEASE NOTE---------------------------------#
#This file is the author's own work and represents their interpretation of the #
#song. You may only use this file for private study, scholarship, or research. #
#------------------------------------------------------------------------------#

The Beatles - I'm Down (solo)
 
MUSIC BY: The Beatles (From the Help!/I'm Down Single)  
TABBED BY: The Beatles Central Team (jpgr_beatles@yahoo.com) 

Solo: 
 
   G                            
E|---------------------------------|-------------------------------- 
B|---------------------------------|-------------------------------- 
G|---------------------------------|-------------------------------- 
D|-----------------3---------------|-------------------------------- 
A|---------3h5---------5-------1---|---------1-------1---3---------- 
E|-3-------------------------------|-------------3------------------ 
   ^       ^       ^       ^         ^       ^       ^       ^ 
 
E|---------------------------------|-------------------------------- 
B|---------------------------------|-------------------------------- 
G|---------------------------------|-------------------------------- 
D|-----------------3-----------3---|-5b(7)---5b(7)---(7)r5--3------- 
A|---------3h5---------5-----------|-------------------------------- 
E|-3-------------------------------|-------------------------------- 
   ^       ^       ^       ^         ^       ^       ^       ^ 
 
   C 
E|---------------------------------|-------------------------------- 
B|---------------------------------|-------------------------------- 
G|-----------------------------3---|-5b(7)---5b(7)---(7)r5--3------- 
D|-----------------3---------------|-------------------------------- 
A|---------3h5---------5-----------|-------------------------------- 
E|-3-------------------------------|-------------------------------- 
   ^       ^       ^       ^         ^       ^       ^       ^ 
   G 
E|---------------------------------|-------------------------------- 
B|---------------------------------|-3(vib)----------3(vib)--------- 
G|-----------------3---------------|-------------------------------- 
D|-5-------5-----------5-----------|-------------------------------- 
A|---------------------------------|-------------------------------- 
E|---------------------------------|-------------------------------- 
   ^       ^       ^       ^         ^       ^       ^       ^ 
   D7 
E|---------------------------------|-------------------------------- 
B|-3(vib)----------3(vib)----------|-3(vib)--3(vib)--3(vib)--------- 
G|---------------------------------|-------------------------3(vib)- 
D|---------------------------------|-------------------------------- 
A|---------------------------------|-------------------------------- 
E|---------------------------------|-------------------------------- 
   ^       ^       ^       ^         ^       ^       ^       ^ 
   G 
E|---------------------------------|-------------------------------- 
B|---------------------------------|-------------------------------- 
G|---------------------------------|-------------------------------- 
D|-5-------------------------------|---------3---------------------- 
A|---------------------1-------3---|-3/5-------------5/3-----1------ 
E|-----------------3---------------|-------------------------------- 
   ^       ^       ^       ^         ^       ^       ^       ^ 


 



          






 
Comments