Beatles - Sheik Of Araby Chords & Tabs

 

Sheik Of Araby Chords & Tabs

Beatles Chords & Tabs

Version: 1 Type: Bass Tab 0 ratings
1 star 2 stars 3 stars 4 stars 5 stars
comments

Sheik Of Araby Bass Tab

Title        : Shiek Of Araby
Artist/Group : The Beatles     Album : Anthology 1
Info         : 4 String Standard Bass 
Date - Time  : 5/6/2002 - 6:39:16 PM
Created by   : K.Robertson
[ Tab from: http://www.guitartabs.cc/tabs/b/beatles/sheik_of_araby_btab.html ]
G-----------|-------3-|-----2-------|-----------------|---------5-2-----|-
D-----2-5-2-|-----5---|---3---3-----|---2-3-4-5-3-2---|---2-5-2-----5-2-|-
A---3-------|-6-6-----|-5-------5-5-|-5-------------5-|-3---------------|-
E-----------|---------|-------------|-----------------|-----------------|-
                                                        
G-----------|-------3-|-----2-------|-----------------|-
D-----2-5-2-|-----5---|---3---3-----|---2-3-4-5-3-2---|-
A---3-------|-6-6-----|-5-------5-5-|-5-------------5-|-
E-----------|---------|-------------|-----------------|-
                                                                        
G-----------------------------------|-2---2-2-2---2-2-2---2-2-2---2-2-|-
D---2---2-2-2---2-2-2---2-2-2---2-2-|---------------------------------|-
A-----------------------------------|---------------------------------|-
E-----------------------------------|---------------------------------|-
                                                                          
G-----------------------------------|-----------------|-----------------|-
D-----------------------------------|-----------------|-5---5-5-5---5-5-|-
A---5---5-5-5---5-5-5---5-5-5---5-5-|-5---5-5-5---5-5-|-----------------|-
E-----------------------------------|-----------------|-----------------|-
                      
G---2---2-2-2---2---|-
D-----------------5-|-
A-------------------|-
E-------------------|-
Comments