Beatles - She Loves You Chords & Tabs

 

She Loves You Chords & Tabs

Beatles Chords & Tabs

Version: 2 Type: Tab

She Loves You Tab

I Spent a long time trying to figure this out, so enjoy.

E--0-3-3-2-0--0-3-3-2-0--0-3-3-2-0-0-|
B-3----------3----------3------------|
G------------------------------------|
D------------------------------------|
A------------------------------------|
E------------------------------------|

E-------------2--------2-----------------2--------2---------------------|
B-----0-1-3-3--3-3-0-3---3-3-----0-1-3-3--3-3-0-3--3--------------------|
G--0-2-----------------------0-2----------------------------------------|
D-0---------------------------------------------------------------------|
A-----------------------------------------------------------------------|
E-----------------------------------------------------------------------|

E-------0-3--------------------------------------3-2--------------------|
B-3-3-3---------0-0--------0-0-0-1-1-1-1-1-1-1-4------------------------|
G-----------0-2-----2-0-------------------------------------------------|
D-----------------------2-----------------------------------------------|
A-----------------------------------------------------------------------|
E-----------------------------------------------------------------------|
[ Tab from: http://www.guitartabs.cc/tabs/b/beatles/she_loves_you_tab_ver_2.html ]
E-------------2--------2-----------------2--------2---------------------|
B-----0-1-3-3--3-3-0-3---3-3-----0-1-3-3--3-3-0-3--3--------------------|
G--0-2-----------------------0-2----------------------------------------|
D-0---------------------------------------------------------------------|
A-----------------------------------------------------------------------|
E-----------------------------------------------------------------------|

E-------0-3---------------3-2-0-----------------------3-2-10-10-10------|
B-3-3-3---------0-0-----------------------------------------------------|
G-----------0-2-----2-0-------------------------------------------------|
D-----------------------2-------0-0-0-1-1-1-1-1-1-1-4-------------------|
A-----------------------------------------------------------------------|
E-----------------------------------------------------------------------|

E---0-3-3-2-0---0-3-3-2-0-----------------------------------------------|
B-3------------3----------0-0-0-1-1-1-1-1-3-3-1-1-0---------------------|
G-----------------------------------------------------------------------|
D-----------------------------------------------------------------------|
A-----------------------------------------------------------------------|
E-----------------------------------------------------------------------|