Beatles - Sexy Sadie Chords & Tabs

 

Sexy Sadie Chords & Tabs

Beatles Chords & Tabs

Version: 1 Type: Tab 0 ratings
1 star 2 stars 3 stars 4 stars 5 stars
comments

Sexy Sadie Tab

   
-------------------------------------------------------------------
  THE BEATLES - SEXY SADIE (Lennon/McCartney) From the WHITE ALBUM.
                Released on November 22nd 1968.
-------------------------------------------------------------------
  Tabbed by:PJVillanueva


Sexy Sadie what have you done
You made a fool of everyone
You made a fool of everyone
Sexy Sadie ooh what have you done.

Sexy Sadie you broke the rules
You layed it down for all to see
You layed it down for all to see
Sexy Sadie oooh you broke the rules.

One sunny day the world was waiting for a lover
She came along to turn on everyone
Sexy Sadie the greatest of them all.



Sexy Sadie how did you know
The world was waiting just for you
The world was waiting just for you
Sexy Sadie oooh how did you know.

Sexy Sadie you'll get yours yet
However big you think you are
However big you think you are
Sexy Sadie oooh you'll get yours yet.

We gave her everything we owned just to sit at her table
Just a smile would lighten everything
Sexy Sadie she's the latest and the greatest of them all.

She made a fool of everyone
Sexy Sadie.

However big you think you are
Sexy Sadie.



e|------- ------- ------- 5------|3------ 3------ 5------ 7---8--|
B|------------------------5------|5-------5-------7-7-----8--10--|
G|------------------------7---7--|5-------5-------7--------------|
D|-------------------------------|----------------0---0----------|
A|-------------------------------|3---3--------3-----------------|
E|-------------------------------|-------------------------------|




e|10--7-- ------- ------- -------|------- ------- ------- -------|
B|12--8---8----------------------|------------------------------3|
G|-0------7---7---6---6-------6--|5---5-------5---2---2---4-5---4|
D|------------9---8---8-------8--|7---7-------7---4---4---5-7---5|
A|----------------9---9---9------|8-------8-------5--------------|
E|-------------------------------|-------------------------------|



  G               F#              Bm 
e|------- ------- ------- -------|2------ 2------ 2------ 2------|
B|----3---3---3---2-------2------|3-------3-------3-------3------|
G|----4---4---4---3-------3------|4-------4-------4---4---2------|
D|----5---5---5---4-------4------|4-----------4-------------4----|
A|-------------------------------|2-----------------------2------|
E|3---3-------3---2---2-------2--|-------------------------------|
          Sexy Sadie                   What have you done?
e|------- ------- ------- -------|------- ------- 2------ -------|
B|-------------------------------|------------3-------3----------|
G|-------------------------------|--------4---------------4------|
D|--------5---------------4------|----4-----------------------4--|
A|----5-------5-------4-------2--|2------------------------------|
E|3---------------2--------------|-------------------------------|



  C               D               G               F#
e|0------ 0------ 5---5-- 7---8--|10--7-- ------- ------- -------|
B|1-------1-------7---7---8--10--|12--8---8----------------------|
G|0-------0-------7---7----------|-0------7---7---6-------6------|
D|----0---2-------0-------0------|------------9---8-------8------|
A|3-----------3------------------|----------------9-------9------|
E|-------------------------------|-------------------------------|
      You  made a fool of  everyone 
e|------- ------- ------- -------|------- ------- ------- -------|
B|-------------------------------|-------------------------------|
G|--------5---------------7------|-------------------------------|
D|----5-------5-------7-------7--|--------5---------------4------|
A|3---------------5--------------|----5-------5-------4-------4--|
E|-------------------------------|3---------------2--------------|                      



  C               D               G               F#   
e|0------ 0------ 2------ 2------|------- ------- ------- -------|
B|1-------1-------3-------3------|3-------3-------2-------2------|
G|5-------5-------2-------2------|4-------4-------3-------3------|
D|----------------0---2---4---0--|5-------5-------4-------4------|
A|3---2---3---4------------------|-------------------------------|
E|-------------------------------|3---3-------3---2---2-------2--|
      You made a fool of  evryone                         Sexy Sadie
e|------- ------- ------- -------|------- ------- ------- -------|
B|-------------------------------|-------------------------------|
G|--------5-------7-7-----7------|-------------------------------|
D|----5-------5-/-----7-------7--|--------5---------------4------|
A|3------------------------------|----5-------5-------4-------4--|
E|-------------------------------|3---------------2--------------|



  F               D            
e|------- ------- ------- -------|
B|1-------1-------3-------3------|
G|2-------2-------2-------2------|
D|3-------3-------0-------0------|
A|-------------------------------|
E|1---1-------1---2---2-------2--|
              Ooh   what have you 
e|------- ------- ------- -------|
B|------------------------3------|
G|------------------------5------|
D|--------3-----------4----------|
A|----3-------3---5--------------|
E|1------------------------------|



  G               F#              Bm
e|------- ------- ------- -------|2------ 2------ ----2-- 2---2--|
B|3-------3-------2-------2------|3-------3-----------3---3---3--|
G|4-------4-------3-------3------|4-------4-----------4---4---4--|
D|5-------5-------4-------4------|4-------4-----------4---4---4--|
A|-------------------------------|2-------2-----------2---2---2--|
E|3-----------3---2---2-------2--|-------------------------------|
  done    Sexy Sadie                You broke the rules
e|------- ------- ------- -------|------- ------- ------- -------|
B|-------------------------------|----------------7--------------|
G|-------------------------------|------------7-------7----------|
D|--------5---------------4------|--------9---------------9------|
A|----5-------5-------4-------4-/|----9--------------------------|
E|3---------------2--------------|7---------------------------7--|



  C               D               G               F#
e|0------ 0------ 5-----7 ----8--|10--7-- ------- ------- -------|
B|1-------1-------7-----8----10--|12--8---8----------------------|
G|0-------0-------7---7----------|-0------7---7---6-------6------|
D|----------------0-------0------|------------9---8-------8------|
A|3---2---3---4------------------|----------------9-------9------|
E|-------------------------------|-------------------------------|
     You laid it down for all to see
e|------- ------- ------- -------|------- ------- ------- -------|
B|-------------------------------|-------------------------------|
G|--------5---------------7------|-------------------------------|
D|----5-------5-------7-------7--|--------5---------------4------|
A|3---------------5--------------|----5-------5-------4-------4--|
E|-------------------------------|3---------------2--------------|



  C               D               G               F#
e|0------ 0------ 2------ 2------|------- ------- ------- -------|
B|1-------1-------3-------3------|3-------3-------2-------2------|
G|0-------0-------2-------2------|4-------4-------3-------3------|
D|----0---2-------0---2---4---0--|5-------5-------4-------4------|
A|3-----------3------------------|-------------------------------|
E|-------------------------------|3---3---3---3---2---2---2---2--|
      You laid it down for all to see                     Sexy Sadie
e|------- ------- ------- -------|------- ------- ------- -------|
B|-------------------------------|-------------------------------|
G|--------5---------------7------|-------------------------------|
D|----5-------5-/-----7-------7--|--------5---------------4------|
A|3---------------5--------------|----5-------5-------4-------4--|
E|-------------------------------|3---------------2--------------|



  F               D
e|------- ------- 2------ 2------|
B|1-------1-------3-------3------|
G|2-------2-------2-------2------|
D|3-------3-------0---2---4---0--|
A|--------3----------------------|
E|1---1-------1------------------|
             Ooh you broke the rules
e|------- ------- ------- -------|
B|------------------------3------|
G|------------------------5------|
D|--------3-----------4-------4--|
A|----3-------3---5--------------|
E|1------------------------------|



  G               Am              Bm              C
e|------- ------- ------- -------|------- ------- ------- -------|
B|0-------0-------1-------1------|3-------3-------1-------1------|
G|0-------0-------2-------2------|4-------4-------0-------0------|
D|0-------0-------2-------2------|4-------4-------2-------2------|
A|----------------0---0---0---0--|2---2---2---2---3---3---3---3--|
E|3---3---3---3------------------|-------------------------------|
   One sunny day the world was waiting for a lover
e|------- ------- ------- -------|------- ------- ------- -------|
B|-------------------------------|-------------------------------|
G|-------------------------------|--------------------------9-9-\|
D|----------3---------------7----|----------7--------------------|
A|------3H5-------------5H7------|------7H9-------------8H10-----|
E|3---------------5--------------|7---------------8--------------|



  G               Am              Bm              C
e|------- ------- ------- -------|------- ------- ------- -------|
B|0-------0-------1-------1------|3-------3-------1-------1------|
G|0-------0-------2-------2------|4-------4-------0-------0------|
D|0-------0-------2-------2------|4-------4-------2-------2------|
A|----------------0---0---0---0--|2---2---2---2---3---3---3---3--|
E|3---3---3---3------------------|-------------------------------|
    She came along to turn on everyone                        Sexy
e|------- ------- ------- -------|------- ------- ------- -------|
B|-------------------------------|-------------------------------|
G|-------------------------------|------------------------9------|
D|----------3---------------7----|----------7-----------8--10-8--|
A|------3H5-------------5H7------|------7H9----------------------|
E|3---------------5--------------|7---------------8--------------|



  A               G#              G               F#
e|------- ------- ------- -------|------- ------- ------- -------|
B|2-------2-------4-------4------|3-------3-------2-------2------|
G|2-------2-------5-------5------|4-------4-------3-------3------|
D|2-------2-------6-------6------|5-------5-------4-------4------|
A|0-----------0------------------|-------------------------------|
E|----------------4-----------4--|3-----------3---2-----------2--|   
  Sadie     the greatest of them all      Sexy Sadie
e|------- ------- ------- -------|------- ------- ------- -------|
B|-------------------------------|-------------------------------|
G|-------------------------------|-------------------------------|
D|--------7---------------6------|--------5---------------4------|
A|----7-------7-------6-------6--|----5-------5-------4-------4--|
E|5---------------4--------------|3---------------2--------------|



  Bm
e|2------ 7---7-- 7-7-7-7 7-7-7-7|
B|3------------------------------|
G|4------------------------------|
D|4------------------------------|
A|2------------------------------|
E|-------------------------------|
     How did you know
e|------- ------- ------- -------|
B|----------------7--------------|
G|------------7-------7----------|
D|--------9---------------9------|
A|----9--------------------------|
E|7---------------------------7--|



  C               D               G               F#
e|0------ 0------ 5------ 7---8--|10--7-- ------- ------- -------|
B|1-------1-------7-------8--10--|12--8---8----------------------|
G|0-------0-------7---7----------|-0------7---7---6---6----------|
D|----0---2-------0-------0------|------------9---8---8----------|
A|3-----------3------------------|----------------9---9----------|
E|-------------------------------|-------------------------------|
   The world was waiting just for you
e|------- ------- ------- -------|------- ------- ------- -------|
B|--------5----------------------|-------------------------------|
G|------------------------7------|-------------------------------|
D|----5-------5-/-----7-------7--|--------5---------------4------|
A|3---------------5--------------|----5-------5-------4-------4--|
E|-------------------------------|3---------------2--------------|




  C               D               G               F#
e|3------ 3------ 5------ 5------|------- ------- ------- -------|
B|5-------5-------7-------7------|3-------3-------2-------2------|
G|5-------5-------7-------7------|4-------4-------3-------3------|
D|----------------0---2---4---0--|5-------5-------4-------4------|
A|3---2---3---4------------------|-------------------------------|
E|-------------------------------|3---3---3---3---2---2---2---2--|
   The world was waiting just for you                    Sexy Sadie
e|------- ------- ------- -------|------- ------- ------- -------|
B|-------------------------------|-------------------------------|
G|--------5---------------7------|-------------------------------|
D|----5-------5-------7-------7--|--------5---------------4------|
A|3---------------5--------------|----5-------5-------4-------4--|
E|-------------------------------|3---------------2--------------|



  F               D               G               F#
e|------- ------- ------- -------|------- ------- ------- -------|
B|1-------1-------3-------3------|3-------3-------2-------2------|
G|2-------2-------2-------2------|4-------4-------3-------3------|
D|3-------3-------0-------0------|5-------5-------4-------4------|
A|-------------------------------|-------------------------------|
E|1---1---1---1---2---2---2---2--|3---3---3---3---2---2---2---2--|
             Ooh   how did you know       Sexy Sadie
e|------- ------- ------- -------|------- ------- ------- -------|
B|------------------------3------|-------------------------------|
G|------------------------5------|-------------------------------|
D|--------3-----------4----------|--------5---------------4------|
A|----3-------3---5--------------|----5-------5-------4-------4--|
E|1------------------------------|3---------------2--------------|



  Bm
e|2------ 2------ 2------ 2------|
B|3-------3-------3-------3------|
G|4-------4-------4-------4------|
D|-------------------------------|
A|2-------------------2-2---2-2--|
E|-------------------------------|
    You'll get yours yet
e|------- ------- ------- -------|
B|----------------7--------------|
G|------------7-------7----------|
D|--------9---------------9------|
A|----9--------------------------|
E|7---------------------------7--|


         
  C               D               G               F#
e|0------ 0------ 5------ 7---8--|10--7-- ------- ------- -------|
B|1-------1-------7-------8--10--|12--8---8----------------------|
G|0-------0-------7---7----------|--------7---7---6--------------|
D|--------0---2---0--------------|------------9---8--------------|
A|3---3--------------------------|----------------9--------------|
E|-------------------------------|-------------------------------|
     However big you think you are
e|------- ------- ------- -------|------- ------- ------- -------|
B|--------5----------------------|-------------------------------|
G|----5-------5-----------7------|-------------------------------|
D|--------------------7-------7--|--------5---------------4------|
A|3---------------5--------------|----5-------5-------4-------4--|
E|-------------------------------|3---------------2--------------|


[ Tab from: http://www.guitartabs.cc/tabs/b/beatles/sexy_sadie_tab.html ]
  C               D               G               F#
e|3------ 3------ 5------ 5------|------- ------- ------- -------|
B|5-------5-------7-------7------|3-------3-------2-------2------|
G|5-------5-------7-------7------|4-------4-------3-------3------|
D|----------------0---2---4---0--|5-------5-------4-------4------|
A|3---2---3---4------------------|-------------------------------|
E|-------------------------------|3---3---3---3---2---2---2---2--|
     However big you think you are                        Sexy Sadie
e|------- ------- ------- -------|------- ------- ------- -------|
B|-------------------------------|-------------------------------|
G|--------5-------7-------7------|-------------------------------|
D|----5-------5-------7-------7--|--------5---------------4------|
A|3------------------------------|----5-------5-------4-------4--|
E|-------------------------------|3---------------2--------------|



  F               D
e|------- ------- 2------ 2------|
B|1-------1-------3-------3------|
G|2-------2-------2-------2------|
D|3-------3-------0---0-------0--|
A|------------------------0------|
E|1---1---1---1------------------|
            Ooh you'll get yours yet
e|------- ------- ------- -------|
B|------------------------3------|
G|------------------------5------|
D|--------3-----------4----------|
A|----3-------3---5--------------|
E|1------------------------------|       



  G               Am              Bm              C
e|------- ------- ------- -------|------- ------- ------- -------|
B|3-------3-------1-------1------|3-------3-------5-------5------|
G|4-------4-------2-------2------|4-------4-------5-------5------|
D|5-------5-------2-------2------|4-------4-------5-------5------|
A|----------------0-----------0--|2-----------2---3-----------3--|
E|3-----------3------------------|-------------------------------|
 We gave her everything we owned ............ 
e|------- ------- ------- -------|------- ------- ------- -------|
B|-------------------------------|-------------------------------|
G|-------------------------------|--------------------------9-\--|
D|----------3---------------7----|----------7--------------------|
A|------3H5-------------5H7------|------7H9-------------8H10-----|
E|3---------------5--------------|7---------------8--------------|

e|------- ------- ------- -------|------- ------- ------- -------|
B|3---------------5--------------|7---------------8--------------|
G|4---------------5--------------|7---------------9--------------|
D|5---------------7--------------|9--------------10--------------|
A|-------------------------------|-------------------------------|
E|-------------------------------|-------------------------------|



  G               Am              Bm              C
e|------- ------- ------- -------|------- ------- ------- -------|
B|3-------3-------1-------1------|3-------3-------1-------1------|
G|4-------4-------2-------2------|4-------4-------0-------0------|
D|5-------5-------2-------2------|4-------4-------2-------2------|
A|----------------0-----------0--|2-----------2---3---3---2---2--|
E|3-----------3------------------|-------------------------------|
  Just a smile would lighten everything                   Sexy
e|------- ------- ------- -------|------- ------- ------- -------|
B|-------------------------------|-------------------------------|
G|-------------------------------|-------------------------------|
D|----------3---------------7----|----------7-----------8---8----|
A|------3H5-------------5H7------|------7H9-------------------10-|
E|3---------------5--------------|7---------------8--------------|

e|------- ------- ------- -------|------- ------- ------- -------|
B|3---------------5--------------|7---------------8--------------|
G|4---------------5--------------|7---------------9--------------|
D|5---------------7--------------|9--------------10--------------|
A|-------------------------------|-------------------------------|
E|-------------------------------|-------------------------------|

                                                       

  A               G#              G               F#
e|------- ------- ------- -------|------- ------- ------- -------|
B|2-------2-------4-------4------|3-------3-------2-------2------|
G|2-------2-------5-------5------|4-------4-------3-------3------|
D|2-------2-------6-------6------|5-------5-------4-------4------|
A|0---0---0---0------------------|-------------------------------|
E|----------------4---4-------4--|3---3---3---3---2---2-------2--|   
 Sadie she's the latest and  the greatest of them all 
e|------- ------- ------- -------|------- ------- ------- ----9--|
B|5---------------4--------------|3---------------2----------11--|
G|6---------------5--------------|4---------------3----------11--|
D|7---------------6--------------|5---------------4--------------|
A|-------------------------------|-------------------------------|
E|-------------------------------|-------------------------------|


     

  Bm
e|2------ 2------ 2------ 2------|
B|3-------3-------3-------3------|
G|4-------4-------4-------4------|
D|----------------4-------4------|
A|2-----------2-------2-----2-2--|
E|-------------------------------|
     
e|------- ------- ------- -------|
B|----------------7--------------|
G|------------7-------7----------|
D|--------9---------------9------|
A|----9--------------------------|
E|7---------------------------7--|
          AaaaH....    
e|7------ ------- ------- -------|  
B|7---7--------------------------|
G|7------------------------------|
D|-------------------------------|
A|-------------------------------|
E|7------------------------------|



  C               D               G               F#
e|0------ 0------ 2------ 2------|------- ------- ------- -------|
B|1-------1-------3-------3------|3-------3-------2-------2------|
G|0-------0-------2-------2------|4-------4-------3-------3------|
D|--------0---2---0---0---2---4--|5-------5-------4-------4------|
A|3---3--------------------------|-------------------------------|
E|-------------------------------|3---3---3---3---2---2-------2--|

e|------- ------- ------- -------|------- ------- ------- -------|
B|-------------------------------|-------------------------------|
G|-------------------------------|-------------------------------|
D|----3---5-------4---5---7---7--|9-B-10--9-B-10--8--------------|
A|-------------------------------|-------------------------------|
E|-------------------------------|-------------------------------|

e|12----- ------- 14----- -------|10----- ------- -9----- -------|
B|13--------------15-------------|12--------------11-------------|
G|12--------------14-------------|12--------------11-------------|
D|-------------------------------|-------------------------------|
A|-------------------------------|-------------------------------|
E|-------------------------------|-------------------------------|



  C               D               G               F#
e|0------ 0------ 2------ 2------|------- ------- ------- -------|
B|1-------1-------3-------3------|3-------3-------2-------2------|
G|0-------0-------2-------2------|4-------4-------3-------3------|
D|----------------0---2---4---0--|5-------5-------4-------4------|
A|3---3---3---3------------------|-------------------------------|
E|-------------------------------|3---3-------3---2---2-------2--|
      You made a fool of  evryone
e|------- ------- ------- -------|------- ------- ------- -------|
B|-------------------------------|-------------------------------|
G|-------------------------------|-------------------------------|
D|2---3---5-------4---5---7------|9-B-10--9-B-10--8--------------|
A|-------------------------------|-------------------------------|
E|-------------------------------|-------------------------------|

e|12----- ------- 14----- -------|10----- ------- -9----- -------|
B|13--------------15-------------|12--------------11-------------|
G|12--------------14-------------|12--------------11-------------|
D|-------------------------------|-------------------------------|
A|-------------------------------|-------------------------------|
E|-------------------------------|-------------------------------|     



  F               D
e|------- ------- ------- -------|
B|1-------1-------3-------3------|
G|2-------2-------2-------2------|
D|3-------3-------0-------0------|
A|-------------------------------|
E|1---1-------1---2---2-------2--|
           
e|------- ------- ------- -------|
B|------------------------3------|
G|------------------------5------|
D|--------3-----------4----------|
A|----3-------3---5--------------|
E|1------------------------------| 

e|------- ------- ------- -------|
B|-------------------------------|
G|-------------------------------|
D|7-B-9---7-B-9------------------|
A|----------------5--------------|
E|-------------------------------| 


    
  G               F#              Bm
e|------- ------- ------- -------|2------ 2------ 2------ 2------|
B|3-------3-------2-------2------|3-------3-------3-------3------|
G|4-------4-------3-------3------|4-------4-------4-------4------|
D|5-------5-------4-------4------|-------------------------------|
A|-------------------------------|2-----------2-------2---2---2--|
E|3---3-------3---2---2-------2--|-------------------------------|
  
e|------- ------- ------- -------|------- ------- ------- -------|
B|-------------------------------|----------------7--------------|
G|-------------------------------|------------7-------7----------|
D|--------5---------------4------|--------9---------------9------|
A|----5-------5-------4-------4--|----9--------------------------|
E|3---------------2--------------|7---------------------------7--|

e|------- ------- ------- -------|------- ------- ------- -------|
B|-------------------------------|-------------------------------|
G|-------------------------------|----7-9-9B11----9B11R9---------|
D|9-B-10--9-B-10--11-------------|9-----------------------9------|
A|------------------------9------|-------------------------------|     
E|-------------------------------|-------------------------------|     
                   


  C               D               G               F#
e|0------ 0------ 2------ 2------|------- ------- ------- -------|
B|1-------1-------3-------3------|3-------3-------2-------2------|
G|0-------0-------2-------2------|4-------4-------3-------3------|
D|----0---2-------0---2---4---0--|5-------5-------4-------4------|
A|3-----------3------------------|-------------------------------|
E|-------------------------------|3---3---3---3---2---2---2---2--|

e|------- ------- ------- -------|------- ------- ------- -------|
B|-------------------------------|-------------------------------|
G|-------------------------------|-------------------------------|
D|2---3---5-------4---5---7------|9-B-10--9-B-10--8--------------|
A|-------------------------------|-------------------------------|
E|-------------------------------|-------------------------------|  

e|------- ------- ------- -------|------- ------- ----9-- -------|
B|-------------------------------|-------------------11----------|
G|-------------------------------|-------------------11----------|
D|-------------------------------|-------------------------------|
A|-------------------------------|-------------------------------|
E|-------------------------------|-------------------------------|




  C               D               G               F#
e|0------ 0------ 2------ 2------|------- ------- ------- -------|
B|1-------1-------3-------3------|3-------3-------2-------2------|
G|0-------0-------2-------2------|4-------4-------3-------3------|
D|----------------0---2---4---0--|5-------5-------4-------4------|
A|3---2---3---4------------------|-------------------------------|
E|-------------------------------|3---3-----3-----2---2-------2--|
     However big you think you are
e|------- ------- ------- -------|------- ------- ------- -------|
B|-------------------------------|-------------------------------|
G|-------------------------------|-------------------------------|
D|2---3---5-------4---5---7------|9-B-10--9-B-10--8--------------|
A|-------------------------------|-------------------------------|
E|-------------------------------|-------------------------------|

e|12----- ------- 14----- -------|10----- ------- -9----- -------|
B|13--------------15-------------|12--------------11-------------|
G|12--------------14-------------|12--------------11-------------|
D|-------------------------------|-------------------------------|
A|-------------------------------|-------------------------------|
E|-------------------------------|-------------------------------|




  F               D
e|------- ------- 2------ 2------|
B|1-------1-------3-------3------|
G|2-------2-------2-------2------|
D|3-------3-------0---0----------|
A|------------------------0---0--|
E|1---1---1---1------------------|
           
e|------- ------- ------- -------|
B|------------------------3------|
G|------------------------5------|
D|--------------------4----------|
A|----------------5--------------|
E|-------------------------------| 

e|------- ------- ------- -------|
B|-------------------------------|
G|-------------------------------|
D|7-B-9---7-B-9------------------|
A|----------------5--------------|
E|-------------------------------| 


   
  G               F#              Bm
e|------- ------- ------- -------|2------ 2------ ----2-- 2---2--|
B|3-------3-------2-------2------|3-------3-----------3---3---3--|
G|4-------4-------3-------3------|4-------4-----------4---4---4--|
D|5-------5-------4-------4------|-------------------------------|
A|-------------------------------|2-------2-----------2---2------|
E|3---3---3---3---2---2---2---2--|----------------------------2--|
  
e|------- ------- ------- -------|------- ------- ------- -------|
B|-------------------------------|----------------7--------------|
G|--------4---------------3------|------------7-------7----------|
D|----5-------5-------4-------4-/|--------9---------------9------|
A|5---------------4--------------|----9--------------------------|
E|-------------------------------|7---------------------------7--|

e|------- ------- ------- -------|------- ------- ------- -------|
B|-------------------------------|-------------------------------|
G|-------------------------------|----7-9-9B11----9B11R9---------|
D|9-B-10--9-B-10--11-------------|9-----------------------9------|
A|-------------------------------|-------------------------------|
E|-------------------------------|-------------------------------|   

e|--10--- 10----- ------- -------|------- ------- ------- -------|
B|--12----12--------------12--12\|-------------------------------|
G|-------------------------------|-------------------------------|
D|-------------------------------|-------------------------------|
A|-------------------------------|-------------------------------|
E|-------------------------------|-------------------------------|




  C               D               G               F#
e|0------ 0------ 2------ 2------|------- ------- ------- -------|
B|1-------1-------3-------3------|3-------3-------2-------2------|
G|0-------0-------2-------2------|4-------4-------3-------3------|
D|----0---2-------0---2---4---0--|5---5---5-------4-------4------|
A|3-----------3------------------|-------------------------------|
E|-------------------------------|3---3---3---3---2---2---2---2--|
  ..............................Fade.............................
e|------- ------- ------- -------|------- ------- ------- -------|
B|-------------------------------|-------------------------------|
G|-------------------------------|-------------------------------|
D|2---3---5-------4---5---7------|9-B-10--9-B-10--8--------------|
A|-------------------------------|-------------------------------|
E|-------------------------------|-------------------------------|

e|------- ------- ------- -------|------- ------- ------- -------|
B|------------8-/-10--10---------|----------------3--------------|
G|-------------------------------|----------------3--------------|
D|-------------------------------|-------------------------------|
A|-------------------------------|-------------------------------|
E|-------------------------------|-------------------------------|




  C               D               G               F#
e|3------ 3------ 5------ 5------|------- ------- ------- -------|
B|5-------5-------7-------7------|3-------3-------2-------2------|
G|5-------5-------7-------7------|4-------4-------3-------3------|
D|----------------0---0---0---0--|5-------5-------4-------4------|
A|3---3---3---3------------------|-------------------------------|
E|-------------------------------|3---3---3---3---2---2---2---2--|
  ...............................................................
e|------- ------- ------- -------|------- ------- ------- -------|
B|-------------------------------|-------------------------------|
G|-------------------------------|-------------------------------|
D|2---3---5-------4---5---7------|9-B-10--9-B-10--8--------------|
A|-------------------------------|-------------------------------|
E|-------------------------------|-------------------------------|


        B  Bend
        R  Release
        /  slide up
        \  slide down
        H  hammer-on
        P  pull-off
        ~  vibrato
        +  harmonic
        x  Mute note
        . - play note like a dot in standard notation
        ^ - ties two notes together
Comments