Beatles - Sexy Sadie Chords & Tabs

 

Sexy Sadie Chords & Tabs

Beatles Chords & Tabs

Version: 3 Type: Bass Tab 0 ratings
1 star 2 stars 3 stars 4 stars 5 stars
comments

Sexy Sadie Bass Tab

SEXY SADIE

Written by John Lennon


INTRO

  t=76                     00:00
G|---------------------------------|---------------------------------|
D|---------------------------------|---------------------------------|
A|---------------------------------|---------------------------------|
E|---------------------------------|---------------------------------|



G|---------------------------------|---------------------------------|
D|---------------------------------|---------------------------------|
A|---------------------------------|---------------------------------|
E|---------------------------------|---------------------------------|


VERSE

  00:09

G|---------------------------------|---------------------4---2-------|
D|-5-----------5---4---4-------4---|-------------4-------------4-----|
A|---------------------------------|-2-------------------------------|
E|---------------------------------|---------------------------------|



G|---------------------------------|---------------------------------|
D|-------------------------4-------|-5---5-------5---4---4-------4---|
A|-3-------5---7---5---7-------5---|---------------------------------|
E|---------------------------------|---------------------------------|



G|---------------------------------|---------------------------------|
D|-------------------------4-------|-5---5-------5---4---4-------4---|
A|-3---2---3---4---5---7-------5---|---------------------------------|
E|---------------------------------|---------------------------------|



G|---------------------------------|
D|-3---3-------3-----------4-------|
A|-----------------5---7-------5---|
E|---------------------------------|


VERSE

  00:31

G|---------------------------------|-------------4-------4---2-------|
D|-5-----------5---4---4-------4---|---------------------------------|
A|---------------------------------|-2---------------------------2---|
E|---------------------------------|---------------------------------|



G|---------------------------------|---------------------------------|
D|-------------------------4-------|-5---5-------5---4---4-------4---|
A|-3---2---3---4---5---7-------5---|---------------------------------|
E|---------------------------------|---------------------------------|



G|---------------------------------|---------------------------------|
D|---------2---------------4-------|-5---5---5---5---4---4---4---4---|
A|-3---5-------3---5---7-------5---|---------------------------------|
E|---------------------------------|---------------------------------|



G|---------5-----------------------|
D|-3---3-------3-----------4-------|
A|-----------------5---7-------5---|
E|---------------------------------|


BRIDGE

  00:54

G|---------------------------------|---------------------------------|
D|-5---5---5-------7-------7-------|-9---9---9-------10--9---7p5-7---|
A|-------------5---------------5---|-------------5-------------------|
E|---------------------------------|---------------------------------|



G|---------------------------------|---------------------------------|
D|-5---5---5-\-----7-------7-\-----|-9---9---9-------10--9---7p5-7---|
A|---------------------x-------5---|-------------5-------------------|
E|---------------------------------|---------------------------------|



G|---------------------------------|
D|-7-----------7---6-----------6---|
A|---------------------------------|
E|---------------------------------|


VERSE

  01:09

G|---------------------------------|-------------4-------------------|
D|-5-----------5---4-----------4---|---------------------2/4---6p4---|
A|---------------------------------|-2-------------------------------|
E|---------------------------------|---------------------------------|



G|---------------------------------|---------------------------------|
D|---------2---------------4-------|-5---5-------5---4-------4-------|
A|-3---5-------3---5---7-------5---|-----------------------------2---|
E|---------------------------------|---------------------------------|



G|---------------------------------|---------------------------------|
D|-------------------------4-------|-5---5---5---5---4---4---4---4---|
A|-3---2---3---4---5---7-------5---|---------------------------------|
E|---------------------------------|---------------------------------|



G|---------------------7---7---7---|
D|-3---3---3---3-------------------|
A|-----------------5---------------|
E|---------------------------------|


VERSE

  01:32
[ Tab from: http://www.guitartabs.cc/tabs/b/beatles/sexy_sadie_btab_ver_3.html ]
G|---------------------------------|-------------------4-4-----4-4---|
D|-5---5---5---5---4---4---4---4---|-------------4-------------------|
A|---------------------------------|-2-------------------------------|
E|---------------------------------|---------------------------------|



G|---------------------------------|---------------------------------|
D|-------------------------4-------|-5---5-------5---4---4-----------|
A|-3---3---5---7---5---7-------5---|---------5-------------------2---|
E|---------------------------------|---------------------------------|



G|---------------------------------|---------------------------------|
D|-------------------------4-------|-5---5---5---5---4---4---4---4---|
A|-3---2---3---4---5---7-------5---|---------------------------------|
E|---------------------------------|---------------------------------|



G|---------------------7---7-------|
D|-3---3---3---3---------------4---|
A|-----------------5---------------|
E|---------------------------------|


BRIDGE

  01:54

G|---------------------------------|---------------------------------|
D|-5---------------7-------7-------|-9---------------10--9---7p5-7---|
A|-------------5---------------5---|-------------5-------------------|
E|---------------------------------|---------------------------------|



G|---------------------------------|---------------------------------|
D|-5-------5-------7-------7-------|-9-------9-------10--9---7p5-7---|
A|-------------5---------------5---|-------------5-------------------|
E|---------------------------------|---------------------------------|



G|---------------------------------|---------------------------------|
D|-7---7---7---7---6---6---6---6---|-5---5---5---5---4---4-------4---|
A|---------------------------------|---------------------------------|
E|---------------------------------|---------------------------------|



G|-------------4-4---4-4-----------|
D|-------------------------2/4-2---|
A|-2-------------------------------|
E|---------------------------------|


GUITAR SOLO

  02:16

G|---------------------------------|---------------------------------|
D|-----------------------------4---|-5---5---4---5---4---4-----------|
A|-3-------5---7---5-------7-------|-----------------------------2---|
E|---------------------------------|---------------------------------|



G|---------------------------------|---------------------------------|
D|-------------------------4-------|-5---5-------5---4---4-------4---|
A|-3---3---3---3---5---7-------5---|---------------------------------|
E|---------------------------------|---------------------------------|



G|---------------------7---7-------|---------------------------------|
D|-3---3-------3---------------4---|-5---5-------5---4---4-----------|
A|-----------------5---------------|-------------------------5---4---|
E|---------------------------------|---------------------------------|



G|-------------4-------4-----------|---------------------------------|
D|-------------------------2---4---|---------2---------------4-------|
A|-2-------------------------------|-3---5-------3---5---7-------5---|
E|---------------------------------|---------------------------------|



G|---------------------------------|---------------------------------|
D|-5---5---5---5---4---4---4---4---|-------------------------4-------|
A|---------------------------------|-3---3---3---3---5---7-------5---|
E|---------------------------------|---------------------------------|



G|---------------------------------|---------------------------------|
D|---------------------------------|-----3---3---3---------------4---|
A|---------------------------------|-----------------5---5---5-------|
E|-3---3-------3-2-2---2-------2---|-1-------------------------------|


  02:55

G|---------------------------------|---------4---4---4---4-----------|
D|-5---5---5-------4---4---4-------|-------------------------4---5---|
A|-------------5---------------4---|-2-------------------------------|
E|---------------------------------|---------------------------------|



G|---------------------------------|-------------7-\-------------6-\-|
D|---------2---------------4-------|-5---5---5-------4---4---4-------|
A|-3---5-------3---5---7-------5---|---------------------------------|
E|---------------------------------|---------------------------------|



G|---------------------------------|---------------------------------|
D|---------2---------------4---5---|-5---5---4---5---4---4---4---4---|
A|-3---5-------3---5---7-----------|---------------------------------|
E|---------------------------------|---------------------------------|
                                                             FADE OUT
Comments