Beatles - Rocky Racoon Chords & Tabs

 

Rocky Racoon Chords & Tabs

Beatles Chords & Tabs

Version: 1 Type: Bass Tab 0 ratings
1 star 2 stars 3 stars 4 stars 5 stars
comments

Rocky Racoon Bass Tab

Song: Rocky Racoon
Artist: Beatles
Album: White Ablum
Tabbed By: Kenny Borders (kennyborders@hotmail.com)

Intro
G--------|
D---7----| (x4)
A--------|
E--------|
[ Tab from: http://www.guitartabs.cc/tabs/b/beatles/rocky_racoon_btab.html ]
Main Riff
G-------------------7-------7-----------------------5-------4----|
D---7-------7-----------------------5-------5--------------------|
A----------------------------------------------------------------|
E----------------------------------------------------------------|

Bridge  (x2)
G----------------------------------------5-----4-----|
D--7-----7---------7-----7-6-5-----5---7----7-----6--|
A-----7-----7-6-5-----5---------5-----5--------------|
E----------------------------------------------------|

then start back with the Main Riff and end with the Bridge.

*THE WALRUS WAS PAUL*
Comments