Beatles - Rocky Raccoon Chords & Tabs

 

Rocky Raccoon Chords & Tabs

Beatles Chords & Tabs

Version: 2 Type: Bass Tab 0 ratings
1 star 2 stars 3 stars 4 stars 5 stars
comments

Rocky Raccoon Bass Tab

ROCKY RACCOON

Written by Paul McCartney

VERSE

   tr                                tr
G|---------------------------------|---------------------------------|
D|---------------------------------|---------------------------------|
A|-0-------------------------------|-5-------------------------------|
E|---------------------------------|---------------------------------|
  his rival it seems...

   tr                                tr              tr
G|---------------------------------|---------------------------------|
D|---------------------------------|---------------------------------|
A|---------------------------------|-3---------------2---------------|
E|-3-------------------------------|---------------------------------|

G|---------------------------------|---------------------------------|
D|---------------------------------|-----------------7---------------|
A|-0-------------------------------|-5-------------------------------|
E|-----------------0---------------|---------------------------------|

G|---------------------------------|-5---------------4---------------|
D|-5-------------------------------|---------------------------------|
A|-----------------5---------------|---------------------------------|
E|---------------------------------|---------------------------------|

G|---------------------------------|---------------------------------|
D|-7-------------------------------|-----------------7---------------|
A|-----------------7---------------|-5-------------------------------|
E|---------------------------------|---------------------------------|

G|---------------------------------|-5---------------4---------------|
D|-5-------------------------------|---------------------------------|
A|-----------------5---------------|---------------------------------|
E|---------------------------------|---------------------------------|

G|---------------------------------|---------------------------------|
D|-7-------------------------------|-----------------7---------------|
A|-----------------7---------------|-5-------------------------------|
E|---------------------------------|---------------------------------|

G|---------------------------------|-5---------------4---------------|
D|-5-------------------------------|---------------------------------|
A|-----------------5---------------|---------------------------------|
E|---------------------------------|---------------------------------|

G|---------------------------------|---------------------------------|
D|-7-------------------------------|-----------------7---------------|
A|-----------------7---------------|-5-------------------------------|
E|---------------------------------|---------------------------------|

G|---------------------------------|-5---------------4---------------|
D|-5-------------------------------|---------------------------------|
A|-----------------5---------------|---------------------------------|
E|---------------------------------|---------------------------------|

CHORUS

G|---------------------------------|---------------------------------|
D|-7---------------7---------------|---------7---------------7-------|
A|---------7---------------7-------|-5---------------5---------------|
E|---------------------------------|---------------------------------|

G|---------------------------------|-5---------------4-------4-------|
D|-5---------------5---------------|---------5-----------------------|
A|---------5---------------5-------|---------------------------------|
E|---------------------------------|---------------------------------|

G|---------------------------------|---------------------------------|
D|-7---------------7---------------|---------7---------------7-------|
A|---------7---------------7-------|-5---------------5---------------|
E|---------------------------------|---------------------------------|
[ Tab from: http://www.guitartabs.cc/tabs/b/beatles/rocky_raccoon_btab_ver_2.html ]
G|---------------------------------|-5---------------4-------4-------|
D|-5---------------5---------------|---------5-----------------------|
A|---------5---------------5-------|---------------------------------|
E|---------------------------------|---------------------------------|

VERSE

G|---------------------------------|---------------------------------|
D|-7-------------------------------|-----------------7---------------|
A|-----------------7---------------|-5-------------------------------|
E|---------------------------------|---------------------------------|

G|---------------------------------|-5---------------4---------------|
D|-5-------------------------------|---------------------------------|
A|-----------------5---------------|---------------------------------|
E|---------------------------------|---------------------------------|

G|---------------------------------|---------------------------------|
D|-7-------------------------------|-----------------7---------------|
A|-----------------7---------------|-5-------------------------------|
E|---------------------------------|---------------------------------|

G|---------------------------------|-5---------------4---------------|
D|-5-------------------------------|---------------------------------|
A|-----------------5---------------|---------------------------------|
E|---------------------------------|---------------------------------|

VERSE

   tr              tr                tr                      tr
G|---------------------------------|---------------------------------|
D|-7---------------7---------------|-------------------------7-------|
A|---------------------------------|-5-------------------------------|
E|---------------------------------|---------------------------------|

   tr              tr                tr              tr
G|---------------------------------|-5---------------4---------------|
D|-5---------------5---------------|---------------------------------|
A|---------------------------------|---------------------------------|
E|---------------------------------|---------------------------------|

   tr              tr                tr                      tr
G|---------------------------------|-----------------7---------------|
D|-7---------------7---------------|-------------------7-----7-------|
A|---------------------------------|-5-------------------5-----------|
E|---------------------------------|---------------------------------|

   tr              tr                tr              tr
G|---------------------------------|-5---------------4---------------|
D|-5---------------5---------------|---------------------------------|
A|---------------------------------|---------------------------------|
E|---------------------------------|---------------------------------|

CHORUS

G|---------------------------------|---------------------------------|
D|-7---------------7---------------|---------7---------------7-------|
A|---------7---------------7-------|-5---------------5---------------|
E|---------------------------------|---------------------------------|

G|---------------------------------|-5---------------4-------4-------|
D|-5---------------5---------------|---------5-----------------------|
A|---------5---------------5-------|---------------------------------|
E|---------------------------------|---------------------------------|

G|---------------------------------|---------------------------------|
D|-7---------------7---------------|---------7---------------7-------|
A|---------7---------------7-------|-5---------------5---------------|
E|---------------------------------|---------------------------------|

G|---------------------------------|-5---------------5-------5-------|
D|-5---------------5-------7-------|---------5-----------5-----------|
A|---------5-----------------------|---------------------------------|
E|---------------------------------|---------------------------------|
Comments