Beatles - Revolution Chords & Tabs

 

Revolution Chords & Tabs

Beatles Chords & Tabs

Version: 2 Type: Tab 0 ratings
1 star 2 stars 3 stars 4 stars 5 stars
comments

Revolution Tab

   
By: Ryan D.

| /  slide up
| \  slide down
| h  hammer-on
| p  pull-off
| ~  vibrato
| +  harmonic
| x  Mute note
===============================================================================	               Intro

e|--6-6-6-6-6-6-6-6-\-4-/-6-6-6-6-6-6-6-6-\-4-/-6-6-6-6-6-6-6-6---6---|
B|--6-6-6-6-6-6-6-6-\-4-/-6-6-6-6-6-6-6-6-\-4-/-6-6-6-6-6-6-6-6---6---|
G|--6-6-6-6-6-6-6-6-\-4-/-6-6-6-6-6-6-6-6-\-4-/-6-6-6-6-6-6-6-6---8---|
D|--8-8-8-8-8-8-8-8-\-6-/-8-8-8-8-8-8-8-8-\-6-/-8-8-8-8-8-8-8-8---8---|
A|--8-8-8-8-8-8-8-8-\-6-/-8-8-8-8-8-8-8-8-\-6-/-8-8-8-8-8-8-8-8---6---|
E|--6-6-6-6-6-6-6-6-\-4-/-6-6-6-6-6-6-6-6-\-4-/-6-6-6-6-6-6-6-6---6---|

e|---------8----------------------------------------------------------|
B|---------8----------------------------------------------------------|
G|---------10---------------------------------------------------------|
D|----6-8--10---------------------------------------------------------|
A|--8------8----------------------------------------------------------|
E|---------8----------------------------------------------------------|
				 Verse
				
e|-6-6-6--6-6-6--6-6-6--6-6-6--6-6-6--6-6-6--6-6-6--6-6-6--6-6-6------|
B|-6-6-6--6-6-6--6-6-6--6-6-6--6-6-6--6-6-6--6-6-6--6-6-6--6-6-6------|
G|-6-6-6--6-6-6--6-6-6--6-6-6--6-6-6--8-8-8--8-8-8--8-8-8--8-8-8------|
D|-8-8-8--8-8-8--8-8-8--8-8-8--8-8-8--8-8-10-8-8-10-8-8-10-8-8-10-----|
A|-8-8-10-8-8-10-8-8-10-8-8-10-8-8-10-6-6-6--6-6-6--6-6-6--6-6-6------|
E|-6-6-6--6-6-6--6-6-6--6-6-6--6-6-6--6-6-6--6-6-6--6-6-6--6-6-6------|

e|-6-6-6--6-6-6--6-6-6--6-6-6--6-6-6--6-6-6--6-6-6--6-6-6--6-6-6------|
B|-6-6-6--6-6-6--6-6-6--6-6-6--6-6-6--6-6-6--6-6-6--6-6-6--6-6-6------|
G|-6-6-6--6-6-6--6-6-6--6-6-6--6-6-6--6-6-6--6-6-6--6-6-6--6-6-6------|
D|-8-8-8--8-8-8--8-8-8--8-8-8--8-8-8--8-8-8--8-8-8--8-8-8--8-8-8------|
A|-8-8-10-8-8-10-8-8-10-8-8-10-8-8-10-8-8-10-8-8-10-8-8-10-8-8-10-----|
E|-6-6-6--6-6-6--6-6-6--6-6-6--6-6-6--6-6-6--6-6-6--6-6-6--6-6-6------|

e|-6-6-6--6-6-6--6-6-6--6-6-6-8--8--8--8--8--8--8--8--8--8--8--8-----|
B|-6-6-6--6-6-6--6-6-6--6-6-6--8--8--8--8--8--8--8--8--8--8--8--8-----|
G|-8-8-8--8-8-8--8-8-8--8-8-8--10-10-10-10-10-10-10-10-10-10-10-10----|
D|-8-8-10-8-8-10-8-8-10-8-8-10-10-10-12-10-10-12-10-10-12-10-10-12----|
A|-6-6-6--6-6-6--6-6-6--6-6-6--8--8--8--8--8-8--8--8--8--8--8--8-----|
E|-6-6-6--6-6-6--6-6-6--6-6-6--8--8--8--8--8--8--8--8--8--8--8--8-----|
				
			         





				Chorus
e|-5----5----5----5--5--3-3-3-3\1-1-1-1--6-6-6--6-6-6--6-6-6--6-6-6---|
B|-5----5----5----5--5--3-3-3-3\1-1-1-1--6-6-6--6-6-6--6-6-6--6-6-6---|
G|-7----5----5----5--7--3-3-3-3\1-1-1-1--6-6-6--6-6-6--6-6-6--6-6-6---|
D|-7----7----7----7--7--5-5-5-5\3-3-3-3--8-8-8--8-8-8--8-8-8--8-8-8---|
A|-5----7----7----7--5--5-5-5-5\3-3-3-3--8-8-10-8-8-10-8-8-10-8-8-10--|
E|-5----5----5----5--5--3-3-3-3\1-1-1-1--6-6-6--6-6-6--6-6-6--6-6-6---|

e|-----8-6-6-6--6-6-6-------8-6-6-6--6-6-6--6-------------------------|
B|-6h8---6-6-6--6-6-6--6h8----6-6-6--6-66----------------------------|
G|-------6-6-6--6-6-6---------6-6-6--6-6-6----------------------------|
D|-------8-8-8--8-8-8---------8-8-8--8-8-8----------------------------|
A|------8-8-10-8-8-10--------8-8-10-8-8-10------6-------8-----6-----8|
E|-------6-6-6--6-6-6---------6-6-6--6-6-6---6-8---8-6-8---6h8--6h8--|
[ Tab from: http://www.guitartabs.cc/tabs/b/beatles/revolution_tab_ver_2.html ]
e|--------------------------------------------------------------------|
B|--------------------------------------------------------------------|
G|--------------------------------------------------------------------|
D|--------------------------------------------------------------------|
A|--------------------------------------------------------------------|
E|--------------------------------------------------------------------| 
			        Verse
e|-6-6-6--6-6-6--6-6-6--6-6-6--6-6-6--6-6-6--6-6-6--6-6-6--6-6-6------|
B|-6-6-6--6-6-6--6-6-6--6-6-6--6-6-6--6-6-6--6-6-6--6-6-6--6-6-6------|
G|-6-6-6--6-6-6--6-6-6--6-6-6--6-6-6--8-8-8--8-8-8--8-8-8--8-8-8------|
D|-8-8-8--8-8-8--8-8-8--8-8-8--8-8-8--8-8-10-8-8-10-8-8-10-8-8-10-----|
A|-8-8-10-8-8-10-8-8-10-8-8-10-8-8-10-6-6-6--6-6-6--6-6-6--6-6-6------|
E|-6-6-6--6-6-6--6-6-6--6-6-6--6-6-6--6-6-6--6-6-6--6-6-6--6-6-6------|

e|-6-6-6--6-6-6--6-6-6--6-6-6--6-6-6--6-6-6--6-6-6--6-6-6--6-6-6------|
B|-6-6-6--6-6-6--6-6-6--6-6-6--6-6-6--6-6-6--6-6-6--6-6-6--6-6-6------|
G|-6-6-6--6-6-6--6-6-6--6-6-6--6-6-6--6-6-6--6-6-6--6-6-6--6-6-6------|
D|-8-8-8--8-8-8--8-8-8--8-8-8--8-8-8--8-8-8--8-8-8--8-8-8--8-8-8------|
A|-8-8-10-8-8-10-8-8-10-8-8-10-8-8-10-8-8-10-8-8-10-8-8-10-8-8-10-----|
E|-6-6-6--6-6-6--6-6-6--6-6-6--6-6-6--6-6-6--6-6-6--6-6-6--6-6-6------|

e|-6-6-6--6-6-6--6-6-6--6-6-6-8--8--8--8--8--8--8--8--8--8--8--8-----|
B|-6-6-6--6-6-6--6-6-6--6-6-6--8--8--8--8--8--8--8--8--8--8--8--8-----|
G|-8-8-8--8-8-8--8-8-8--8-8-8--10-10-10-10-10-10-10-10-10-10-10-10----|
D|-8-8-10-8-8-10-8-8-10-8-8-10-10-10-12-10-10-12-10-10-12-10-10-12----|
A|-6-6-6--6-6-6--6-6-6--6-6-6--8--8--8--8--8-8--8--8--8--8--8--8-----|
E|-6-6-6--6-6-6--6-6-6--6-6-6--8--8--8--8--8--8--8--8--8--8--8--8-----|
 				 Chorus

e|-5----5----5----5--5--3-3-3-3\1-1-1-1--6-6-6--6-6-6--6-6-6--6-6-6---|
B|-5----5----5----5--5--3-3-3-3\1-1-1-1--6-6-6--6-6-6--6-6-6--6-6-6---|
G|-7----5----5----5--7--3-3-3-3\1-1-1-1--6-6-6--6-6-6--6-6-6--6-6-6---|
D|-7----7----7----7--7--5-5-5-5\3-3-3-3--8-8-8--8-8-8--8-8-8--8-8-8---|
A|-5----7----7----7--5--5-5-5-5\3-3-3-3--8-8-10-8-8-10-8-8-10-8-8-10--|
E|-5----5----5----5--5--3-3-3-3\1-1-1-1--6-6-6--6-6-6--6-6-6--6-6-6---|

e|-6--6-6-6--6-6-6--6-6-6--6--6-6-6--6-6-6--6-6-6--6------------------|
B|-6--6-6-6--6-6-6--6-6-6--6--6-6-6--6-6-6--6-66--6------------------|
G|-8--8-8-8--6-6-6--6-6-6--8--8-8-8--6-6-6--6-6-6--8------------------|
D|-8--8-8-8--8-8-8--8-8-8--8--8-8-8--8-8-8--8-8-8--8------------------|
A|-6--6-6-6--8-8-10-8-8-10-6--6-6-6--8-8-10-8-8-10-6------6-------8---|
E|-6--6-6-6--6-6-6--6-6-6--6--6-6-6--6-6-6--6-6-6--6--6-8---8-6-8-----|
e|--------------------------------------------------------------------|
B|--------------------------------------------------------------------|
G|--------------------------------------------------------------------|
D|--------------------------------------------------------------------|
A|-----6-----8--------------------------------------------------------|
E|-6-8---6-8----------------------------------------------------------|
			
Solo -------------- Too lazy to learn it. Has to do something with the B string, 6th threat. 

Repeat Verse and Chorus 

End off like this...  
e|----------8--6------------------------------------------------------|
B|-6h8p6----6--8------------------------------------------------------|
G|--------------------------------------------------------------------|
D|--------------------------------------------------------------------|
A|--------------------------------------------------------------------|
E|--------------------------------------------------------------------| 

| /  slide up
| \  slide down
| h  hammer-on
| p  pull-off
| ~  vibrato
| +  harmonic
| x  Mute note
===============================================================================
Comments