Beatles - Revolution One Chords & Tabs

 

Revolution One Chords & Tabs

Beatles Chords & Tabs

Version: 1 Type: Bass Tab 0 ratings
1 star 2 stars 3 stars 4 stars 5 stars
comments

Revolution One Bass Tab

Title       : Revolution 1
Artist      : The Beatles
Album       : The Beatles
Tabbed By   : Ken Robertson
----------------------------------------------------------------------------

G---------------------------------------------------------------------------
D-------------------------------4-7-4-7-----4-7-4-7-------------------------
A---4-7-4-7-----4-7-4-7-----4-5-----------5-------------4-7-4-7-----4-7-4-57
E-5-----------5-----------5---------------------------5-----------5---------

G---------------------------------------------------------------------------
D--------------------------------4-7-4-7-----4-7-4-7------------------------
A----4-7-4-7-----4-7-4-7-----4-5-----------5-------------6-9-6-9-----6-9-6-9
E--5-----------5-----------5---------------------------7-----------7--------

G-11-9-----------------9-9-------|-11-9------------------------|------------
D------12-11-9-------------12-11-|------12-11-9------------8---|------------
A--------------12-11-9-----------|--------------12-11-9-11---9-|-9-9-9-7-5-4
E--------------------------------|-----------------------------|-------------7-

G-----------------------|-----------------------|-----------------------|---
D---------------4-7-4-7-|---------------4-7-4-7-|---------------4-7-4-7-|---
A---4-7-4-7---5---------|---4-7-4-7---5---------|---4-7-4-7---5---------|-7-
E-5---------------------|-5---------------------|-5---------------------|---

G----------------------------------------------------------------------
D----------------------------------------------------------------------
A----------------------------------------------------------------------
E-5--5-5-5--5-5--5-5-5--5-5--5-5-5--5-5--5-5-5--5-5--5-5-5--5-5--5-5-5-

G------------------------------------------------------------
D------------------------------------------------------------
A------------------------------------------------------------
E-5-5--5-5-5--5-5--5-5-5--5-5--5-5-5--5-5--5-5-5--5-5--5-5-5-
[ Tab from: http://www.guitartabs.cc/tabs/b/beatles/revolution_one_btab.html ]
G---------------9-----------11-9-----------------9-9-------|-11-9---------
D-----6-9-6-9-----6-9-6-9--------12-11-9-------------12-11-|------12-11-9-
A---7------------------------------------12-11-9-----------|--------------
E----------------------------------------------------------|--------------

G------------------|---------------|-----------------------------------
D--------------8---|---------------|---------------4-7-4-7-------------
A---12-11-9-11---9-|-9-9-9-7-5-4---|---4-7-4-7---5-------------4-7-4-7-
E------------------|-------------7-|-5-----------------------5---------

G-------------------------------------|---|
D-----4-7-4-7-----------------4-7-4-7-|---|
A---5-------------4-7-4-7---5---------|-7-|
E---------------5---------------------|---|

G----------------------------------------------------------------------
D----------------------------------------------------------------------
A----------------------------------------------------------------------
E-5--5-5-5--5-5--5-5-5--5-5--5-5-5--5-5--5-5-5--5-5--5-5-5--5-5--5-5-5-

G-----------------------------------------------------------------------|
D-----------------------------------------------------------------------|
A-----------------------------------------------------------------------|
E---5-5---5-5-5---5-5---5-5-5---5-5---5-5-5---5-5---5-5-5---5-5---5-5-5-|

G--------------------------------|
D--------------------------------|
A---7--7-7--7-7--7-7--7-7--5-4---|
E------------------------------7-|

G---11-9-----------------9------------|-11-9------------------------|
D--------12-11-9----------------------|------12-11-9------------8---|
A----------------12-11-9---7--7-5-4---|--------------12-11-9-11---9-|
E-----------------------------------7-|-----------------------------|

G-------------------------|-----------------------------------
D-------------------------|---------------4-7-4-7-------------
A---9-9-9-7-5-4-----4-----|---4-7-4-7---5-------------4-7-4-7-
E---------------5-7---5-7-|-5-----------------------5---------

G-------------------------------------|---|
D-----4-7-4-7-----------------4-7-4-7-|---|
A---5-------------4-7-4-7---5---------|-7-|
E---------------5---------------------|---|

G-----------------------------------------------------------------------
D-----------------------------------------------------------------------
A-----------------------------------------------------------------------
E--5--5-5-5--5-5--5-5-5--5-5--5-5-5--5-5--5-5-5--5-5--5-5-5--5-5--5-5-5-
FADE OUT
Comments