Beatles - Real Love Chords & Tabs

 

Real Love Chords & Tabs

Beatles Chords & Tabs

Version: 3 Type: Bass Tab 0 ratings
1 star 2 stars 3 stars 4 stars 5 stars
comments

Real Love Bass Tab

REAL LOVE

By John Lennon
Arr. by Paul McCartney George Harrison & Ringo Starr
From Anthology 2

INTRO

G|---------------------------------|---------------------------------|
D|---------------------------------|---------------------------------|
A|---------------------------------|---------------------------------|
E|---------------------------------|---------------------------------|

G|---------------------------------|---------------------------------|
D|---------------------------------|---------------------------------|
A|---------------------------------|---------------------------------|
E|---------------------------------|---------------------------------|

VERSE

G|---------------------------------|---------------------------------|
D|---------------------------------|---------------------------------|
A|---------------------------------|---------------------------------|
E|---------------------------------|---------------------------------|

G|---------------------------------|---------------------------------|
D|---------------------------------|---------------------------------|
A|---------------------------------|---------------------------------|
E|---------------------------------|---------------------------------|

G|---------------------------------|---------------------------------|
D|---------------------------------|---------------------------------|
A|---------------------------------|---------------------------------|
E|---------------------------------|---------------------------------|

G|---------------------------------|---------------------------------|
D|---------------------------------|---------------------------------|
A|---------------------------------|---------------------------------|
E|---------------------------------|---------------------------------|

VERSE

G|---------------------------------|---------------------------------|
D|---------------------------------|---------------------------------|
A|-6-------------------------------|-5-------------------------------|
E|---------------------------------|---------------------------------|

G|---------------------------------|---------------------------------|
D|---------------------------------|---------------------------------|
A|-3-------------------------------|---------------------------------|
E|---------------------------------|-6-------------------------------|

G|---------------------------------|---------------------------------|
D|---------------------------------|---------------------------------|
A|---------------------------------|-----------------1---------------|
E|-4-------------------------------|-1-------------------------------|

G|---------------------------------|---------------------------------|
D|---------------------------------|---------------------------------|
A|-6-----------4-------------------|-6-----------4-------------------|
E|-----------------4---------------|-----------------4---------------|

BRIDGE

G|---------------------------------|---------------------------------|
D|---------------------------------|---------------------------------|
A|-6---------------6---------------|---------------------------------|
E|---------------------------------|-4---------------4---------------|

G|---------------------------------|---------------------------------|
D|---------------------------------|---------------------------------|
A|-6---------------6---------------|---------------------------------|
E|---------------------------------|-4---------------4---------------|

CHORUS

G|---------------------------------|---------------------------------|
D|---------------------------------|---------------------------------|
A|-6-----------5---3---------------|-----------------------------5---|
E|---------------------------------|-4---------------6---------------|

G|---------------------------------|---------------------------------|
D|---------------------------------|---------------------------------|
A|-6-----------5---3---------------|---------------------------------|
E|---------------------------------|-4-----------4---6---------------|

INTERLUDE

G|---------------------------------|---------------------------------|
D|---------------------------------|---------------------------------|
A|-6-------------------------------|---------------------------------|
E|---------------------------------|-6-------------------------------|

G|---------------------------------|---------------------------------|
D|---------------------------------|-------------8-8-8---------------|
A|-6-------------------------------|---------------------------------|
E|---------------------------------|-6-------------------------------|

VERSE

G|---------------------------------|---------------------------------|
D|---------------------------------|---------------------------------|
A|-6-------------------------------|-5-------------------------------|
E|---------------------------------|---------------------------------|
[ Tab from: http://www.guitartabs.cc/tabs/b/beatles/real_love_btab_ver_3.html ]
G|---------------------------------|---------------------------------|
D|---------------------------------|---------------------------------|
A|-3-------------------------------|---------------------------------|
E|---------------------------------|-6-------------------------------|

G|---------------------------------|---------------------------------|
D|---------------------------------|---------------------------------|
A|---------------------------------|-----------------1---------------|
E|-4-------------------------------|-1-------------------------------|

G|---------------------------------|---------------------------------|
D|---------------------------------|---------------------------------|
A|-6-----------4-------------------|-6-----------4-------------------|
E|-----------------4---------------|-----------------4---------------|

BRIDGE

G|---------------------------------|---------------------------------|
D|---------------------------------|---------------------------------|
A|-6---------------6---------------|---------------------------------|
E|---------------------------------|-4-----------4---4---------------|

G|---------------------------------|---------------------------------|
D|---------------------------------|---------------------------------|
A|-6---------------6---------------|---------------------------------|
E|---------------------------------|-4---------------4---------------|

CHORUS

G|---------------------------------|---------------------------------|
D|---------------------------------|---------------------------------|
A|-6-----------5---3---------------|-----------------------------5---|
E|---------------------------------|-4---------------6---------------|

G|---------------------------------|---------------------------------|
D|---------------------------------|---------------------------------|
A|-6-----------5---3---------------|---------------------------------|
E|---------------------------------|-4-----------4---6---------------|

GUITAR SOLO

G|---------------------------------|---------------------------------|
D|---------------------------------|---------------------------------|
A|-------------------------1-------|-3-----------3---3---------------|
E|-1-------3-------4---------------|---------------------------------|

G|---------------------------------|---------------------------------|
D|-3-----------3---3---------------|---------------------------------|
A|---------------------------------|-1-----------1---1---------------|
E|---------------------------------|---------------------------------|

G|---------------------------------|
D|---------------------------------|
A|-1---1---1---1---1---------------|
E|---------------------------------|

VERSE

G|---------------------------------|---------------------------------|
D|---------------------------------|---------------------------------|
A|-6-------------------------------|-5-------------------------------|
E|---------------------------------|---------------------------------|

G|---------------------------------|---------------------------------|
D|---------------------------------|---------------------------------|
A|-3-------------------------------|---------------------------------|
E|---------------------------------|-6-------------------------------|

G|---------------------------------|---------------------------------|
D|---------------------------------|---------------------------------|
A|---------------------------------|-----------------1---------------|
E|-4-------------------------------|-1-------------------------------|

G|---------------------------------|---------------------------------|
D|---------------------------------|---------------------------------|
A|-6-----------4-------------------|-6-----------4-------------------|
E|-----------------4---------------|-----------------4---------------|

BRIDGE

G|---------------------------------|---------------------------------|
D|---------------------------------|---------------------------------|
A|-6---------------6---------------|---------------------------------|
E|---------------------------------|-4---------------4---------------|

G|---------------------------------|---------------------------------|
D|---------------------------------|---------------------------------|
A|-6---------------6---------------|---------------------------------|
E|---------------------------------|-4---------------4---------------|

CHORUS

G||---------------------------------|---------------------------------|
D||---------------------------------|---------------------------------|
A||-6-----------5---3---------------|-----------------------------5---|
E||---------------------------------|-4---------------6---------------|

G|---------------------------------|---------------------------------||
D|---------------------------------|---------------------------------||
A|-6-----------5---3---------------|---------------------------------||
E|---------------------------------|-4-----------4---6---------------||
                                                  REPEAT AND FADE OUT
Comments