Beatles - Piggies Chords & Tabs

 

Piggies Chords & Tabs

Beatles Chords & Tabs

Version: 3 Type: Bass Tab 0 ratings
1 star 2 stars 3 stars 4 stars 5 stars
comments

Piggies Bass Tab

PIGGIES

Written by George Harrison

VERSE

G|---------------------------------|---------------------------------|
D|-6-------------------------------|-6-------------------------------|
A|-----------------6---------------|-----------------6---------------|
E|---------------------------------|---------------------------------|

G|---------------------------------|---------------------------------|
D|-6-------------------------------|-----------------8---------------|
A|-----------------6---------------|-8-------------------------------|
E|---------------------------------|---------------------------------|

G|---------------------------------|---------------------------------|
D|-----------------8---------------|---------------------------------|
A|-8-------------------------------|-6-------------------------------|
E|---------------------------------|---------------------------------|

G|---------------------------------|---------------------------------|
D|-6-------------------------------|-6-------------------------------|
A|-----------------6---------------|-----------------6---------------|
E|---------------------------------|---------------------------------|

VERSE

G|---------------------------------|---------------------------------|
D|-6-------------------------------|-6-------------------------------|
A|-----------------6---------------|-----------------6---------------|
E|---------------------------------|---------------------------------|

G|---------------------------------|---------------------------------|
D|-6-------------------------------|-----------------8---------------|
A|-----------------6---------------|-8-------------------------------|
E|---------------------------------|---------------------------------|

G|---------------------------------|---------------------------------|
D|-----------------8---------------|---------------------------------|
A|-8-------------------------------|-6-------------------------------|
E|---------------------------------|---------------------------------|

G|---------------------------------|---------------------------------|
D|-6-------------------------------|-6-------------------------------|
A|-----------------6---------------|-----------------3---------------|
E|---------------------------------|---------------------------------|

BRIDGE

G|---------------------------------|---------------------------------|
D|---------------------------------|---------------------------------|
A|-1-------1-------3-------3-------|-4-------4-------6-------6-------|
E|---------------------------------|---------------------------------|

G|---------------------------------|---------------------------------|
D|---------------------------------|-8-------8-----------------------|
A|-6-------6-------6-------6-------|-----------------6-------6-------|
E|---------------------------------|---------------------------------|
[ Tab from: http://www.guitartabs.cc/tabs/b/beatles/piggies_btab_ver_3.html ]
G|---------------------------------|---------------------------------|
D|---------------------------------|---------------------------------|
A|-1-------1-------3-------3-------|-4-------4-------6-------6-------|
E|---------------------------------|---------------------------------|

G|---------------------------------|
D|---------------------------------|
A|-6-------6-------6-------6-------|
E|---------------------------------|

SOLO

G|---------------------------------|---------------------------------|
D|-6-------------------------------|-6-------------------------------|
A|-----------------6---------------|-----------------6---------------|
E|---------------------------------|---------------------------------|

G|---------------------------------|---------------------------------|
D|-6-------------------------------|-----------------8---------------|
A|-----------------6---------------|-8-------------------------------|
E|---------------------------------|---------------------------------|

G|---------------------------------|---------------------------------|
D|-----------------8---------------|---------------------------------|
A|-8-------------------------------|-6-------------------------------|
E|---------------------------------|---------------------------------|

G|---------------------------------|---------------------------------|
D|-6-------------------------------|-6-------------------------------|
A|-----------------6---------------|-----------------6---------------|
E|---------------------------------|---------------------------------|

VERSE

G|---------------------------------|---------------------------------|
D|-6-------------------------------|-6-------------------------------|
A|-----------------6---------------|-----------------6---------------|
E|---------------------------------|---------------------------------|

G|---------------------------------|---------------------------------|
D|-6-------------------------------|-----------------8---------------|
A|-----------------6---------------|-8-------------------------------|
E|---------------------------------|---------------------------------|

G|---------------------------------|---------------------------------|
D|-----------------8---------------|---------------------------------|
A|-8-------------------------------|-6-------------------------------|
E|---------------------------------|---------------------------------|

G|---------------------------------|---------------------------------|
D|-6-------------------------------|-6-------------------------------|
A|-----------------6---------------|-----------------6---------------|
E|---------------------------------|---------------------------------|

G|---------------------------------|---------------------------------|
D|-6-------------------------------|-8-------------------------------|
A|-----------------6---------------|-----------------6---------------|
E|---------------------------------|---------------------------------|
Comments