Beatles - Penny Lane Chords & Tabs

 

Penny Lane Chords & Tabs

Beatles Chords & Tabs

Version: 1 Type: Bass Tab 0 ratings
1 star 2 stars 3 stars 4 stars 5 stars
comments

Penny Lane Bass Tab

Tabbed:  Seth Ferguson (Sethferg@cs.com)
Song:  Penny Lane
Artist:  Beatles
Album:  Magical Mystery Tour, Beatles 1

This is a groovy song to play and it's kind of hard at first, but you'll get used to it.  Enjoy!

Intro
G|-----16----16|-16--15--13-11|--9-----11--11--------|
D|--16----16---|--------------|----11----------8-----|
A|-------------|--------------|----------------------|
E|-------------|--------------|----------------------|

G|---------|--------|-----|------------|------------|
D|-9-8-6-4-|------6*|--5*-|-4--4-4----4|-4--4-4----4|
A|---------|--2*----|-----|--------4---|--------4---|
E|---------|--------|-----|------------|------------|

Verse
G|--------|----------3|-4--3-----|---------|-----------|
D|-9-8-6-4|-2---4--4--|-------6-4|-9*----6*|-5*--5--5-5|
A|--------|---4-------|----------|---------|-----------|
E|--------|-----------|----------|---------|-----------|

G|-------6----------|--------------|--------------|
D|-4--4----4--4-----|-2------------|--------------|
A|--------------4---|---4----------|--------------|
E|------------------|--------4--0--|--5--5-5--0-5-|

G|-----------------|----------------|--------------|
D|-----------------|------------4-6-|-7--7--7--7---|
A|-4--4--4----2--4-|-5--5--5--7-----|-------------5|
E|----------5------|----------------|--------------|
[ Tab from: http://www.guitartabs.cc/tabs/b/beatles/penny_lane_btab.html ]
G|------------------|------------------|--------------|
D|------------------|-4--4--4--5--7--4-|--------------|
A|-------------4----|------------------|-5--5--5----5-|
E|-5--5--5--7----5--|------------------|----------5---|

G|----------|---------|------------3-|-4--3--------|
D|----------|-9-8-6-4-|-2-----4--4---|-------6--4--|
A|-4--2-----|---------|----4---------|-------------|
E|-------2--|---------|--------------|-------------|

G|---|---|---|---------------|---------------|
D|-9*|-6*|-5*|-4--4-4-----4--|-4--4-4-----4--|
A|---|---|---|---------4-----|---------4-----|
E|---|---|---|---------------|---------------|


G|-----------|----------|---------|-------------|
D|-9-8-6-4---|-2---4--4-|-9-8-6-4-|-9-9---9-9---|
A|---------6-|---4------|---------|-----9-----9-|
E|-----------|----------|---------|-------------|

G|---------|-----------|-----------|----6--3--6---|
D|---------|-----------|-4-4---4-4-|-4----------4-|
A|-6-6-6-6-|-5-5-5-5---|-----4-----|--------------|
E|---------|---------5-|-----------|--------------|

G|------------|---------------|---------|-----------------|
D|-9--9-9----9|-6--6-6---6----|---------|-----------------|
A|--------9---|--------7---7--|-7---7---|-----6-8--9------|
E|------------|---------------|---7---7-|-7-9--------9--7-|

G|---------------|--------------|-------------|
D|---------------|-6--6-6---6---|-----------8-|
A|---------------|--------7---7-|-7-7-7-9-7---|
E|-7--7--7--7--7-|--------------|-------------|

G|------------|
D|-9*---9-----|
A|--------9/2-|
E|------------|

/= slide down
*=rest
Comments