Beatles - Paperback Writer Chords & Tabs

 

Paperback Writer Chords & Tabs

Beatles Chords & Tabs

Version: 2 Type: Tab 0 ratings
1 star 2 stars 3 stars 4 stars 5 stars
comments

Paperback Writer Tab

   
-------------------------------------------------------------------------------
			PAPERBACK WRITER- The Beatles
-------------------------------------------------------------------------------
Tabbed by:Casey Anderson

Email:RandeA5@AOL.com

Tuning:Down one step D G C F A D

Intro:

e|---------------------------------------------------------------------
B|---------------------------------------2-----------------------------
G|----------2--------0-------------------0-----------------------------
D|-----0/2-------------------0-----oh2---------------------------------
A|-0--------------0-------0-----0--------------------------------------
E|---------------------------------------------------------------------
[ Tab from: http://www.guitartabs.cc/tabs/b/beatles/paperback_writer_tab_ver_2.html ]
e|---------------------------------------------------------------------
B|---------------------------------------------------------------------
G|----------2--------0--------------------0----------------------------
D|-----0/2-------------------0------oh2--------------------------------
A|-0--------------0-------0-----0--------------------------------------
E|---------------------------------------------------------------------

      A5            A6  A5                   A6  A5           A6 A5  
Dear sir or madam will you read my book? It took me years to write will 
     A5
you take a look                                                    
A6 A5                   A6  A5                A6  A5         A6 A5   
  It's based on a novel by a man named Lear. And I need a job so I want    
                   D5                  A7                          ^
                                      
to be a paperback writer           paperback writer!  Start chorus here


Chords
     E A D G B E  
A5  [7 5 5 5 x x]
A6  [x 0 1 1 1 1]
A7  [x 0 2 2 2 1 or x 0 2 0 2 0]
D5  [x 2 4 4 4 0] 



That is my first tab I hope yall like it.


| /  slide up
| \  slide down
| h  hammer-on
| p  pull-off
| ~  vibrato
| +  harmonic
| x  Mute note
===============================================================================
Comments