Beatles - Paperback Writer Chords & Tabs

 

Paperback Writer Chords & Tabs

Beatles Chords & Tabs

Version: 1 Type: Bass Tab 0 ratings
1 star 2 stars 3 stars 4 stars 5 stars
comments

Paperback Writer Bass Tab

   
Intro:

(Do this real fast right before the end of the guitar intro)

G-12-12-12-12-
D-------------
A-------------
E-------------

Verses:

G----------------
D-55--35-55------ x4
A---55-----22-345
E----------------

Paperback writer...

G--------------
D--------------
A-33-123-------
E---3----------
[ Tab from: http://www.guitartabs.cc/tabs/b/beatles/paperback_writer_btab.html ]
PAPERBACK WRITER!

G--------------
D--------------
A-3-3-3-----55-
E--------------

At the end, where the intro is played for the last time, Paul throws in that
little bass line that sounds like what was at the begining, but higher, goes
like this

G-14-14-14-14-14-14-
D-------------------
A-------------------
E-------------------
Comments