Beatles - One After 909 Chords & Tabs

 

One After 909 Chords & Tabs

Beatles Chords & Tabs

Version: 1 Type: Bass Tab 0 ratings
1 star 2 stars 3 stars 4 stars 5 stars
comments

One After 909 Bass Tab

Title       : One After 909
Artist      : The Beatles
Album       : Let It Be
Tabbed By   : Ken Robertson
------------------------------------------------------------------------

G-----------------------------------------------------------------|
D-----4---4---4---4---4---4---4---4---4---4---4---4---4---4-------|
A---2---2---2---2---2---2---2---2---2---2---2---2---2---2---2---2-|
E-----------------------------------------------------------------|

G---------------------------------------|
D---2---2---------4---4---4---4---4-4-4-|
A-----2---------2---2---4---2---2-------|
E---------2-4-5-------------------------|

G-------------------------------------|
D-----4---4---4---4---4---4---4-------|
A---2---2---2---2---2---2---2---2---2-|
E-------------------------------------|

G-------------------------------|---------------------------------
D---2---2---------4---4---4---4-|---------1-2---2---------4---4---
A-----2---------2---2---4---2---|-2-2-4-5-----2---------2---2---2-
E---------2-4-5-----------------|-----------------2-4-5-----------

G-------------------------------|---------------------------6-6-6-
D-----6-----6---4-2-1-----------|-2---2---------4---4-----6-------
A---4---4-4---4-------4-2-1-----|---2---------2---2---2-4---------
E---------------------------4-2-|-------2-4-5---------------------

G-----------------------|
D---6-6-4-4-----4-4---4-|
A-----------4-4-----4---|
E-----------------------|
[ Tab from: http://www.guitartabs.cc/tabs/b/beatles/one_after_909_btab.html ]
G-------------------------------------|-----------------------------|
D-----4---4---4---4---4---4---4-------|-2---2---------4---4---4---4-|
A---2---2---2---2---2---2---2---2---2-|---2---------2---2---4---2---|
E-------------------------------------|-------2-4-5-----------------|

G---4-4-2-----|---------4-----2h4-2h4-|---------4-4-----2---|
D---------4-2-|-----4-4-----4---------|-----4-4-----2-4---4-|
A-------------|-2-2-------2-----------|-2-2-----------------|
E-------------|-----------------------|---------------------|

G-------------4-4-4-2---|-----------4-4-2-------|
D-------4-4-4---------4-|-----4-4-4-------4-2---|
A---2-2-----------------|-2-2-----------------5-|
E-----------------------|-----------------------|

G-----------------------------------------------|
D-----------2---------------2-----4---4---4---4-|
A---2---2---------2-2-2-4-5-----2---2---4---2---|
E-------------4-5-------------------------------|

G--------------------------------------------------------------
D-----------1-2---2---------2-----------6----3-6-3---4---4-4-4-
A---2-2-4-5-----2---------2---2-2-2-3-4----4-------------------
E-------------------2-4-5--------------------------------------

G-----------------------------------------------------------------
D---4-4-4---4-4-4---2---2---------4---4-----6---3-6-3---4---4-4-4-
A---------------------2---------2---2---2-4---4-------------------
E-------------------------2-4-5-----------------------------------

G-----------------|---------------------------------------|
D---4-4-4---4-4-4-|---4---4---4---4---4---4---4-----------|
A-----------------|-2---2---2---2---2---2---2---2---2---2-|
E-----------------|---------------------------------------|

G-------------------------------------------------------------------|
D---2---2---------4---4---4---4---4---4---4---4---4---1-2-3-4-2-----|
A-----2---------2---2---4---2---2---4---2---2---4---2-----------1-2-|
E---------2-4-5-----------------------------------------------------|
Comments