Beatles - Oh Darling Chords & Tabs

 

Oh Darling Chords & Tabs

Beatles Chords & Tabs

Version: 3 Type: Bass Tab 0 ratings
1 star 2 stars 3 stars 4 stars 5 stars
comments

Oh Darling Bass Tab

OH! DARLING


Written by Paul McCartney




  VERSE
  00:02

G|-------------------------------------|-------------------------------------|
D|-------------------------------------|-------------------------------------|
A|--------------7H9--7--------4--5--6--|-7-----------------------------------|
E|-5-----------------------------------|--------------7H9--7------7H9-----7--|





G|-------------------------------------|-------------------------------------|
D|--------------5/7--------------------|-------------------7-----------------|
A|-9-----------------9-----------0-----|-5------------7/9---------7/9-----5--|
E|----------------------------------0--|-------------------------------------|





G|-------------------------------------|-------------------------------------|
D|---------------------------4H6-------|-------------------------------------|
A|-------------9-----7-----------------|-------------9-----7-----------------|
E|-7--------------7--------------------|-7--------------7--------------------|





G|-------------------------------------|-------------------------------------|
D|-------------------------------------|-7--7--7--7--6-----------------------|
A|----------------4--5--5--5--5--6--7--|----------------9--7-----------------|
E|-5--5--5--5--7-----------------------|-------------------------------------|





  VERSE
  00:36

G|-------------------------------------|--------------4H6--4-----------4-----|
D|-------------------------------------|--------------------------4/6-----4/6|
A|-7------------7H9--7--------4--5--6--|-7-----------------------------------|
E|-5-----------------------------------|-------------------------------------|





G|-------------------6-----------------|-------------------------------------|
D|-4--------------7-----------7-\------|-------------------7-----------7-----|
A|----------------------------------7--|-5------------7/9---------7/9-----7/9|
E|-------------------------------------|-------------------------------------|





G|-------------------------------------|-------------------------------------|
D|--------------------------------4/6--|------------------------------4/6-9--|
A|-----------5/6--9--7-----------------|-------------9-----7--------7--------|
E|-7-----------------------------------|-7--------------7--------------------|





G|-------------------------------------|-------------------------------------|
D|-------------------------------------|-------------------------------------|
A|----------------4--5--5--5--5--4-----|-------------------------------------|
E|-5--5--5--5--7--------------------7--|-5--5--5--5--5--5--7--7--8--9--9--7--|





  BRIDGE
  01:08

G|-------------------------------------|-------------------------------------|
D|-------------------------------------|-3--------3--------------------3-----|
A|-5-----5--5-----5--5-----5--5--6--7--|----------------3-----------3-----3--|
E|-------------------------------------|-------------------1-----1-----------|





G|-------------------------------------|-------------------------------------|
D|-------------------------------------|-7-----------------------------------|
A|-0--------2--------3--------4--------|---------7H9--7H9--7-----------7--9--|
E|-------------------------------------|-------------------------8--9--------|





G|-------------------------------6--6--|-------------------------------6-----|
D|--------------------------4/6--------|--------------------------4/6--------|
A|----------6--------9-----------------|-9--------6--------9-----------------|
E|-7-----------------------------------|---7---------------------------------|




[ Tab from: http://www.guitartabs.cc/tabs/b/beatles/oh_darling_btab_ver_3.html ]
G|-------------------------------------|-------------------------------------|
D|-------------4/6---------------5/7---|-------------------------------------|
A|-7--7--7--7--------8--8--8--8--------|-7-----------------------------------|
E|-------------------------------------|-------------------------------------|





  VERSE
  01:41

G|-------------------------------------|--------------4H6--4-----------------|
D|-------------------------------------|-------------------------------------|
A|--------------7/9--7--------4--5--6--|-7-----------------------------------|
E|-5-----------------------------------|--------------------------7H9-7H9-7--|





G|-------------------6-----------------|-------------------------------------|
D|----------------7--------------------|-------------------7------7/9--7-----|
A|-9------------------------7H9--8--7--|-5------------7/9-----------------9--|
E|-------------------------------------|-------------------------------------|





G|-------------------------------------|-------------------------------------|
D|-----------------------------4H6--9--|--------------------------------4H6--|
A|-------------9-----7-----------------|-------------9-----7-----------------|
E|-7--------------7--------------------|-7--------------7--------------------|





G|-------------------------------------|-------------------------------------|
D|-------------------------------------|----------------------------------7--|
A|----------------4--5--5--5--5--6--7--|-------------------------5--7-7H9----|
E|-5--5--5--5--7-----------------------|-5--5--7--7--8--8--9--9--------------|





  BRIDGE
  02:14

G|-------------------------------------|-------------------------------------|
D|-------------------------------------|---------5H7--------------5H7-----7--|
A|-5--------5--------5--------5--6--7--|-8-----------------8-----------------|
E|-------------------------------------|-------------------------------------|





G|-------------------------------------|-------------------------------------|
D|-------------------------------------|----------------------------------7--|
A|-0--------2--------3--------4--------|-0-----2--3-----3--4-----4--5--------|
E|-------------------------------------|-------------------------------------|





G|-------------------------------------|-------------------------------------|
D|--------------------------4H6--9--6--|----------------------------------7H9|
A|----------6--------9-----------------|----------6--------9-----9--6--9-----|
E|-7-----------------------------------|-7-----------------------------------|





G|-----------------------------------4-|-------------------------------------|
D|----------------------------3--5/7---|-------------------------------------|
A|-7--7--7-----------------------------|-7-----------------------------------|
E|----------0--0--0--1--1--1-----------|-------------------------------------|





  VERSE
  02:48

G|-------------------------------------|--------------4H6--4-----------------|
D|-------------------------------------|---------------------------4H6-4H6-4-|
A|--------------7H9--7--------4--5--6--|-7-----------------------------------|
E|-5-----------------------------------|-------------------------------------|





G|-------------------------------------|-------------------------------------|
D|-------------------4-----------------|-------------------7-----------7-----|
A|----------------4-----------4-----4--|-5------------7H9----------7H9---7H9-|
E|-2--------2--------------------------|-------------------------------------|





G|-------------------------------------|-------------------------------------|
D|-------------------------------------|----------------------------------7--|
A|--------------9----7------------7H9--|-------------9-----7---------7H9-----|
E|-7--------------7--------------------|-7--------------7--------------------|





G|-------------------------------------|-------------------------------------|
D|-------------------------------------|-------------------------------------|
A|----------------4--5--5--5--5--6--7--|-------------------------------------|
E|-5--5--5--5--7-----------------------|-5--------6-----5--------------------|
Comments