Beatles - Ob-la-di Chords & Tabs

 

Ob-la-di Chords & Tabs

Beatles Chords & Tabs

Version: 2 Type: Bass Tab 0 ratings
1 star 2 stars 3 stars 4 stars 5 stars
comments

Ob-la-di Bass Tab

OB-LA-DI, OB-LA-DA

Written by Paul McCartney


INTRO

                                    00:00
G|---------------------------------|---------------------------------|
D|---------------------------------|---------------------------------|
A|---------------------------------|---------------------------------|
E|---------------------------------|---------------------------------|


G|--------/7---10---------/7---10--|--------/7---10---------/7---10--|
D|-8---------------8---------------|-8---------------8---------------|
A|---------------------------------|---------------------------------|
E|---------------------------------|---------------------------------|


G|---------------------------------|---------------------------------|
D|-------------3---------------3---|-------------3---------------3---|
A|-1-----3-5-------1-----3-5-------|-1-----3-5-------1-----3-5-------|
E|---------------------------------|---------------------------------|


VERSE

  00:10

G|---------------------------------|---------------------------------|
D|-------------3---------------3---|---------------------------------|
A|-1-----3-5-------1-------5-------|-------------3---------------3---|
E|---------------------------------|-1-----3-5-------1-----3-5-------|


G|---------------------------------|---------------------------------|
D|---------------------------------|-------------3---------------3---|
A|-------------3---------------3---|-1-------5-------1-----3-5-------|
E|-1-----3-5-------1-----3-5-------|---------------------------------|


G|---------------------------------|-------------3---------------3---|
D|-------------3---------------3---|-1-------5-------1-------5-------|
A|-1-----3-5-------1-------5-------|---------------------------------|
E|---------------------------------|---------------------------------|


G|---------------------------------|---------------------------------|
D|-------------3-------------------|-------------3---------------3---|
A|-1-----3-5-------------------3---|-1-------5-------1-------5-------|
E|-----------------1-------5-------|---------------------------------|


CHORUS

  00:27

G|---------------------------------|---------------------------------|
D|-------------3---------------3---|-3-----------3---5---------------|
A|-1-------5-------1-----3-5-------|-------3-5-------------3-5---3---|
E|---------------------------------|---------------------------------|


G|---------------------------------|---------------------------------|
D|-------------3-------------------|-------------3---------------3---|
A|-1-------5-------------------3---|-1-----3-5-------1-----3-5-------|
E|-----------------1-------5-------|---------------------------------|


G|---------------------------------|---------------------------------|
D|-------------3---------------3---|-3-----------3---5---------------|
A|-1-------5-------1-----3-5-------|-------3-5--------------/5---3---|
E|---------------------------------|---------------------------------|


G|---------------------------------|---------------------------------|
D|-------------3-------------------|-------------3---------------3---|
A|-1-------5-------------------3---|-1-------5-------1-----3-5-------|
E|-----------------1-------5-------|---------------------------------|


VERSE

  00:45

G|---------------------------------|---------------------------------|
D|-------------3---------------3---|---------------------------------|
A|-1-------5-------1-------5-------|-------------3---------------3---|
E|---------------------------------|-1-----3-5-------1-----3-5-------|


G|---------------------------------|---------------------------------|
D|---------------------------------|-------------3---------------3---|
A|-------------3---------------3---|-1-------5-------1-------5-------|
E|-1-------5-------1-------5-------|---------------------------------|


G|---------------------------------|-------------3---------------3---|
D|-------------3---------------3---|-1-------5-------1-----3-5-------|
A|-1-------5-------1-------5-------|---------------------------------|
E|---------------------------------|---------------------------------|


G|---------------------------------|---------------------------------|
D|-------------3-------------------|-------------3---------------3---|
A|-1-----3-5-------------------3---|-1-----3-5-------1-----3-5-------|
E|-----------------1-------5-------|---------------------------------|


CHORUS

  01:01

G|---------------------------------|---------------------------------|
D|-------------3---------------3---|-3-----------3---5---------------|
A|-1-------5-------1-----3-5-------|-------3-5-------------3-5---3---|
E|---------------------------------|---------------------------------|


G|---------------------------------|---------------------------------|
D|-------------3-------------------|-------------3---------------3---|
A|-1-------5-------------------3---|-1-----3-5-------1-----3-5-------|
E|-----------------1-----3-5-------|---------------------------------|


G|---------------------------------|---------------------------------|
D|-------------3---------------3---|-3-----------3---5---------------|
A|-1-----3-5-------1-----3-5-------|-------3-5---------------5---3---|
E|---------------------------------|---------------------------------|


G|---------------------------------|---------------------------------|
D|-------------3-------------------|---------0---3---------------0---|
A|-1-------5-------------------3---|-1---1-----------1----3--4-------|
E|-----------------1-----3-5-------|---------------------------------|


BRIDGE

  01:18

G|---------------------------------|---------------------------------|
D|-1-------1-------1-------1-------|-1-------1-------1-------1---3---|
A|-----1-------1-------1-------1---|-------1-----1-------1-----------|
E|---------------------------------|---------------------------------|


G|---------------------------------|---------------------------------|
D|-----------------------------3---|-------------3---------------0---|
A|-1-------1-------1-------1-------|-1-------1-------1---3---4-------|
E|-----1-------1---------1---------|-------1-------------------------|

[ Tab from: http://www.guitartabs.cc/tabs/b/beatles/ob_la_di_btab_ver_2.html ]
G|---------------------------------|---------------------------------|
D|-1-------1-------1-------1-------|-1-------1-------1---x---2---3---|
A|-----1-------1---------------1---|-------------1-------------------|
E|---------------------------------|---------------------------------|


G|---------------------------------|---------------------------------|
D|-----3-------3-------3-------3---|-----3-------3-------------------|
A|---------------------------------|---------------------6---5---3---|
E|---------------------------------|---------------------------------|


VERSE

  01:35

G|---------------------------------|---------------------------------|
D|-------------3---------------3---|---------------------------------|
A|-1-------5-------1-----3-5-------|-------------3---------------3---|
E|---------------------------------|-1-----3-5-------1-----3-5-------|


G|---------------------------------|---------------------------------|
D|---------------------------------|-------------3---------------3---|
A|-------------3---------------3---|-1-------5-------1-----3-5-------|
E|-1-------5-------1-------5-------|---------------------------------|


G|---------------------------------|-------------3---------------3---|
D|-------------3---------------3---|-1-------5-------1-------5-------|
A|-1-----3-5-------1-------5-------|---------------------------------|
E|---------------------------------|---------------------------------|


G|---------------------------------|---------------------------------|
D|-------------3-------------------|-------------3---------------3---|
A|-1-------5-------------------3---|-1-----3-5-------1-------5-------|
E|-----------------1-------5-------|---------------------------------|


CHORUS

  01:52

G|---------------------------------|---------------------------------|
D|-------------3---------------3---|-3-----------3---5---------------|
A|-1-------5-------1-------5-------|-------3-5---------------5---3---|
E|---------------------------------|---------------------------------|


G|---------------------------------|---------------------------------|
D|-------------3-------------------|-------------3---------------3---|
A|-1-------5-------------------3---|-1-----3-5-------1-------5-------|
E|-----------------1-----3-5-------|---------------------------------|


G|---------------------------------|---------------------------------|
D|-------------3---------------3---|-3-----------3---5---------------|
A|-1-------5-------1-------5-------|-------3-5---------------5---3---|
E|---------------------------------|---------------------------------|


G|---------------------------------|---------------------------------|
D|-------------3-------------------|-------------3---------------0---|
A|-1-------5-------------------3---|-1-------5-------1---3---4-------|
E|-----------------1-------5-------|---------------------------------|


BRIDGE

  02:09

G|---------------------------------|---------------------------------|
D|-1-------1-------1-------1-------|-1-------1-------1-------1---3---|
A|-----1-------1-------1-------1---|-------1-----1-------1-----------|
E|---------------------------------|---------------------------------|


G|---------------------------------|---------------------------------|
D|-----------------------------3---|-------------3---------------0---|
A|-1-------1-------1-------1-------|-1-------1-------1---3---4-------|
E|-----1-------1---------1---------|-------1-------------------------|


G|---------------------------------|---------------------------------|
D|-1-------1-------1-------1-------|-1-------1-------1-------2---3---|
A|-----1-------1-------1-------1---|-----1-------1-------------------|
E|---------------------------------|---------------------------------|


G|---------------------------------|---------------------------------|
D|-----3-------3-------3-------3---|-----3-------3-------------------|
A|---------------------------------|---------------------6---5---3---|
E|---------------------------------|---------------------------------|


VERSE

  02:26

G|---------------------------------|---------------------------------|
D|-------------3---------------3---|---------------------------------|
A|-1-------5-------1-------5-------|-------------3---------------3---|
E|---------------------------------|-1-----3-5-------1-------5-------|


G|---------------------------------|---------------------------------|
D|---------------------------------|-------------3---------------3---|
A|-------------3---------------3---|-1-----3-5-------1-------5-------|
E|-1-----3-5-------1-----3-5-------|---------------------------------|


G|---------------------------------|-------------3---------------3---|
D|-------------3---------------3---|-1-------5-------1-------5-------|
A|-1-----3-5-------1-------5-------|---------------------------------|
E|---------------------------------|---------------------------------|


G|---------------------------------|---------------------------------|
D|-------------3-------------------|-------------3---------------3---|
A|-1-----3-5-------------------3---|-1-------5-------1-------5-------|
E|-----------------1-----3-5-------|---------------------------------|


CHORUS

  02:43

G|---------------------------------|---------------------------------|
D|-------------3---------------3---|-3-----------3---5---------------|
A|-1-----3-5-------1-----3-5-------|-------3-5---------------5---3---|
E|---------------------------------|---------------------------------|


G|---------------------------------|---------------------------------|
D|-------------3-------------------|-------------3---------------3---|
A|-1-----3-5-------------------3---|-1-------5-------1-------5-------|
E|-----------------1-------5-------|---------------------------------|


G|---------------------------------|---------------------------------|
D|-------------3---------------3---|-3-----------3---5---------------|
A|-1-----3-5-------1-------5-------|-------3-5-------------3-5---3---|
E|---------------------------------|---------------------------------|


G|---------------------------------|---------------------------------|
D|-------------3-------------------|-5---------------5---------------|
A|-1-------5-------------------3---|---------5---------------5-------|
E|-----------------1-------5-------|---------------------------------|


G|---------------------------------|---------------------------------|
D|-5---------------5---------------|-3---1---0-----------------------|
A|---------5---------------5-------|-------------3---1---------------|
E|---------------------------------|---------------------------------|
Comments