Beatles - Nowhere Man Chords & Tabs

 

Nowhere Man Chords & Tabs

Beatles Chords & Tabs

Version: 1 Type: Tab 0 ratings
1 star 2 stars 3 stars 4 stars 5 stars
comments

Nowhere Man Tab

   
=-=-=-=-=-=-=-=-=-=-=-=-=-=
The Beatles
Nowhere Man
Rubber Soul
Tabbed by Leandro Koren
leandro_koren@yahoo.com.ar
=-=-=-=-=-=-=-=-=-=-=-=-=-=

Verse:

He's a real nowhere man
Sitting in his nowhere land
F#m            Am                E
Making all his nowhere plans for nobody

Figure 1:
       
      B F#m   E
E|-|--0---0-0-0--|-|
B|-|--0---0-0-0--|-|
G|-|--4---2-1-1--|-|
D|-|----------2--|-|
A|-|----------2--|-|
e|-|-------------|-|

E              B
Doesn't have a point of view
A                    E
Knows not where he's going to
F#m        Am               E
Isn't he a bit like you and me
[ Tab from: http://www.guitartabs.cc/tabs/b/beatles/nowhere_man_tab.html ]
        G#m         A
Nowhere man, please listen
          G#m              A
You don't know what you're missing
        G#m      F#m      A              B
Nowhere man, the world is at your command

Solo:

E|-|--0-0--0--0-0-0--|--0-0--0-0-0-0--|----------------|-|
B|-|--5-0--5--4h5-7--|--5-0--0-0-0-0--|----------------|-|
G|-|--4-4--4--4-4-4--|--4-4--2-1h2/4--|--2-2-2--2-2-2--|-|
D|-|-----------------|----------------|------4---------|-|
A|-|-----------------|----------------|-------------3--|-|
e|-|-----------------|----------------|----------------|-|

E|-|---------------[12]--|-|
B|-|---------------------|-|
G|-|---------------------|-|
D|-|---------------------|-|
A|-|---------------------|-|
e|-|--8-8-7---7/0--------|-|

He's as blind as he can be
Just sees what he wants to see
Nowhere man can you see me at all?

Nowhere man, don't worry
Take your time, don't hurry
Leave it all till somebody else lends you a hand

[]: Natural harmonic
/: Slide
h: Hammer
Comments