Beatles - Norwegian Wood Finger Style Chords & Tabs

 

Norwegian Wood Finger Style Chords & Tabs

Beatles Chords & Tabs

Version: 1 Type: Tab 4 ratings
1 star 2 stars 3 stars 4 stars 5 stars
comments

Norwegian Wood Finger Style Tab

   
#----------------------------------PLEASE NOTE---------------------------------#
#This file is the author's own work and represents their interpretation of the #
#song. You may only use this file for private study, scholarship, or research. #
#------------------------------------------------------------------------------##

Norwegian Wood ---- Beatles
tab by Paul Baxter

Gtr I (D A D G B E) - 'Drop D'

    Faster Q=140
    $
   3/4
    Gtr I
    Q  Q  Q    Q  Q  Q    Q  Q  Q    Q  Q  Q    Q  Q  E E
||--5--------|-7--5--3--|-2--------|-0--3--2--|-----------|
||o-7--------|-8--7--5--|-3--------|-1--------|-3-------0-|
||-----------|----------|----------|----------|-2---------|
||--------0--|----------|-------0--|----------|-------0---|
||o----0-----|----------|----0-----|----------|----0------|
||--0--------|-0--------|-0--------|-0--------|-0---------|


                       1.            2.
              To Coda &
  Q  Q  Q    Q  Q  Q    Q  Q  Q      Q  Q  Q      Q  Q  Q    Q  Q  Q
|----3-----|----------|-----------||----------||--1--1--1--|-1--0--0--|
|-1-----0--|----------|----------o||----------||o----------|----------|
|-------0--|-2--------|-----------||-------2--||--2--2--2--|-2--0--0--|
|----------|-------0--|-------0---||-------0--||-----------|----------|
|----------|----0-----|----0-----o||----0-----||o----------|----------|
|-0--------|-0--------|-0---------||-0--------||--0--------|-0--------|


                       1.
  Q  Q  Q    Q  Q  Q    Q  Q  Q    Q  Q  Q    Q  Q  Q
|----------|----------|----------|----------|----------|
|-5s=3--3--|-1--3--1--|-3-----0--|----------|----------|
|----------|----0-----|-0--------|-------0--|-------0--|
|-5s=3--3--|-3-----3--|----0-----|----0-----|----0-----|
|----------|----------|----------|-2--------|----------|
|-0--------|-0--------|-5--------|----------|-5--------|


               2.
                                            D.S. al Coda
  Q  Q  Q      Q  Q  Q    Q  Q  Q    Q  Q  Q    Q  Q  Q
|-----------||----------|----------|----------|-------0--||
|-0--------o||-3--------|----------|----------|-2--3-----||
|----0------||-0-----0--|-------0--|-------2--|----------||
|-----------||----2-----|----2-----|----2-----|----------||
|-------0--o||----------|----------|-0--------|-0--2--4--||
|-5---------||-2--------|-2--------|----------|----------||

[ Tab from: http://www.guitartabs.cc/tabs/b/beatles/norwegian_wood_finger_style_tab.html ]
  &
  Q  Q  Q     Q  E E Q    Q  Q  Q    Q  E E Q    Q  Q  Q
|----------||------2----|----------|------2----|----------|
|----------||----3---3--|----------|----3---3--|----------|
|----------||-2---------|-4--2--0--|-----------|----0-----|
|-------0--||-----------|----------|-4---------|-2-----4--|
|----0-----||-----------|----------|-----------|----------|
|-0--------||-0---------|-0--------|-0---------|-0--------|


  Q  E E E E   Q  Q  Q     H.
|------2-----|----------|-^2-----*|
|----3---3---|----------|-^3-----*|
|------------|----0-----|-^2-----*|
|-0----------|----------|-^0-----*|
|----------2-|-3-----2--|-^0-----*|
|-0----------|----------|-^0-----*|


Duration Legend
---------------
W - whole; H - half; Q - quarter; E - 8th; S - 16th; T - 32nd; X - 64th; a - acciaccatura
+ - note tied to previous; . - note dotted; .. - note double dotted
Uncapitalized letters represent notes that are staccato (1/2 duration)
Irregular groupings are notated above the duration line
Duration letters will always appear directly above the note/fret number it represents the
duration for.  Duration letters with no fret number below them represent rests.  Multi-
bar rests are notated in the form Wxn, where n is the number of bars to rest for.  Low
melody durations appear below the staff

Tablature Legend
----------------
 h   - hammer-on
 p   - pull-off
 b   - bend
 pb  - pre-bend
 r   - bend release (if no number after the r, then release immediately)
 /  - slide into or out of (from/to "nowhere")
 s   - legato slide
 S   - shift slide
  - natural harmonic
[n]  - artificial harmonic
n(n) - tapped harmonic
 ~   - vibrato
 tr  - trill
 T   - tap
 TP  - trem. picking
 PM  - palm muting
n/  - tremolo bar dip; n = amount to dip
 n  - tremolo bar down
 n/  - tremolo bar up
/n  - tremolo bar inverted dip
 =   - hold bend; also acts as connecting device for hammers/pulls
   - volume swell (louder/softer)
 x   - on rhythm slash represents muted slash
 o   - on rhythm slash represents single note slash

Misc Legend
-----------
 |  - bar
||  - double bar
||o - repeat start
o|| - repeat end
*|  - double bar (ending)
 :  - bar (freetime)
 $  - Segno
 &  - Coda
Tempo markers -  = BPM(8/16=s8/s16), where s8 = swing 8ths, s16 = swing 16ths


***************************************************************************************
* Generated using Power Tab Editor by Brad Larsen - http://powertab.guitarnetwork.org *
***************************************************************************************
Comments