Beatles - Norwegian Wood Chords & Tabs

 

Norwegian Wood Chords & Tabs

Beatles Chords & Tabs

Version: 3 Type: Bass Tab 0 ratings
1 star 2 stars 3 stars 4 stars 5 stars
comments

Norwegian Wood Bass Tab

Norwegian Wood (This Bird Has Flown)
The Beatles
Written by John Lennon and Paul McCartney; released on "Rubber Soul"

A very nice number.
3/4 time

Intro:
G|------- ------- -------|------- ------- -------|------- ------- -------|
D|-----------------------|-----------------------|-----------------------|
A|-----------------------|-----------------------|-----------------------|
E|-----------------------|-----------------------|-----------------------|



G|------- ------- -------|------- ------- -------|------- ------- -------|
D|-----------------------|-----------------------|-----------------------|
A|-----------------------|-----------------------|-----------------------|
E|-----------------------|-----------------------|-----------------------|



G|------- ------- -------|------- ------- -------|------- ------- -------|
D|-----------------------|-----------------------|-----------------------|
A|-----------------------|-----------------------|7----------------------|
E|-----------------------|-----------------------|-----------------------|



G|------- ------- -------|------- ------- -------|------- ------- -------|
D|-----------------------|-----------------------|-----------------------|
A|-----------------------|7----------------------|-----------------------|
E|7----------------------|-----------------------|7----------------------|



G|------- ------- -------|------- ------- -------|------- ------- -------|
D|-----------------------|-----------------------|-----------------------|
A|7----------------------|-----------------------|7----------------------|
E|-----------------------|7----------------------|-----------------------|



G|------- ------- -------|
D|-----------------------|
A|-----------------------|
E|7----------------------|


Verse:
G|------- ------- -------|------- ------- -------|------- ------- -------|
D|-----------------------|-----------------------|-----------------------|
A|7----------------------|-----------------------|7----------------------|
E|-----------------------|7----------------------|-----------------------|
  I                       once    had     a   girl,


G|------- ------- -------|------- ------- -------|------- 7------ 9------|
D|-----------------------|-----------------------|9----------------------|
A|-----------------------|7----------------------|-----------------------|
E|7----------------------|-----------------------|-----------------------|
  or      should          say                     she     once    had
              I

G|------- ------- -------|------- ------- -------|------- ------- -------|
D|-----------------------|-----------------------|-----------------------|
A|7----------------------|-----------------------|7----------------------|
E|-----------------------|7----------------------|-----------------------|
  me?                                             She


G|------- ------- -------|------- ------- -------|------- ------- -------|
D|-----------------------|-----------------------|-----------------------|
A|-----------------------|7----------------------|-----------------------|
E|7----------------------|-----------------------|7----------------------|
  showed  me      her     room,                  'Isn't           it


G|------- ------- -------|------- ------- -------|------- ------- -------|
D|-----------------------|--------9-------9------|-----------------------|
A|7----------------------|7----------------------|7----------------------|
E|-----------------------|-----------------------|-----------------------|
  good?                   Nor  -  we  -   gian    wood'


G|------- ------- -------|
D|-----------------------|
A|-----------------------|
E|7----------------------|
                  She

Bridge:
G|------- ------- -------|------- ------- -------|------- ------- -------|
D|-----------------------|-----------------------|-----------------------|
A|7----------------------|7----------------------|7----------------------|
E|-----------------------|-----------------------|-----------------------|
  asked   me      to      stay,   and     she     told    me      to


G|------- ------- -------|------- ------- -------|------- ------- -------|
D|-----------------------|7----------------------|----------------5------|
A|7----------------------|-----------------------|7----------------------|
E|-----------------------|-----------------------|-----------------------|
  sit a   -   ny   -  where


G|------- ------- -------|------- ------- -------|------- ------- -------|
D|7----------------------|----------------7------|-----------------------|
A|-----------------------|7----------------------|7----------------------|
E|-----------------------|-----------------------|-----------------------|
                                          So      I       looked  a - round


G|------- ------- -------|------- ------- -------|------- ------- -------|
D|-----------------------|-----------------------|-----------------------|
A|-----------------------|7----------------------|-----------------------|
E|7----------------------|-----------------------|7----------------------|
              and I       no  -   ticed   there   wasn't          a   chair


G|------- ------- -------|------- ------- -------|------- ------- -------|
D|4----------------------|4----------------------|-----------------------|
A|-----------------------|-----------------------|-----------------------|
E|-----------------------|-----------------------|7----------------------|



G|------- ------- -------|
D|-----------------------|
A|----------------6------|
E|7----------------------|


Verse:
G|------- ------- -------|------- ------- -------|------- ------- -------|
D|-----------------------|-----------------------|-----------------------|
A|7----------------------|-----------------------|7----------------------|
E|-----------------------|7----------------------|-----------------------|
  I                       sat     on      the     rug,


G|------- ------- -------|------- ------- -------|------- ------- -------|
D|-----------------------|-----------------------|-----------------------|
A|-----------------------|7----------------------|----------------5------|
E|7----------------------|-----------------------|5-------7--------------|
  bi  -   ding    my      time,                   drin -  king    her


G|------- ------- -------|------- ------- -------|------- ------- -------|
D|-----------------------|-----------------------|-----------------------|
A|7----------------------|--------5--------------|7----------------------|
E|-----------------------|7---------------7------|-----------------------|
  wine                                            We

[ Tab from: http://www.guitartabs.cc/tabs/b/beatles/norwegian_wood_btab_ver_3.html ]
G|------- ------- -------|------- ------- -------|------- ------- -------|
D|-----------------------|-----------------------|-----------------------|
A|----------------5------|7----------------------|----------------5------|
E|7----------------------|-----------------------|7----------------------|
  talked  un  -   til     two                     and     then    she


G|------- ------- -------|------- 7------ 9------|------- ------- -------|
D|-----------------------|9----------------------|-----------------------|
A|7----------------------|-----------------------|7----------------------|
E|-----------------------|-----------------------|-----------------------|
  said:                  'It's    time    for bed'


G|------- ------- -------|
D|--------9-\-7---5------|
A|-----------------------|
E|-----------------------|


Verse (solo):
G|------- ------- -------|------- ------- -------|------- ------- -------|
D|-----------------------|-----------------------|-----------------------|
A|7----------------------|-----------------------|7----------------------|
E|-----------------------|7----------------------|-----------------------|



G|------- ------- -------|------- ------- -------|------- ------- -------|
D|-----------------------|-----------------------|-----------------------|
A|----------------5------|7----------------------|----------------5------|
E|7----------------------|-----------------------|5-------5--------------|



G|------- ------- -------|------- ------- -------|------- ------- -------|
D|-----------------------|-----------------------|-----------------------|
A|7----------------------|--------5--------------|7----------------------|
E|-----------------------|7---------------7------|-----------------------|



G|------- ------- -------|------- ------- -------|------- ------- -------|
D|-----------------------|-----------------------|-----------------------|
A|----------------5------|7----------------------|----------------5------|
E|7----------------------|-----------------------|7----------------------|



G|------- ------- -------|------- 7------ 9------|------- ------- -------|
D|-----------------------|9----------------------|-----------------------|
A|7----------------------|-----------------------|7----------------------|
E|-----------------------|-----------------------|-----------------------|



G|------- ------- -------|
D|-----------------------|
A|-----------------------|
E|7----------------------|
                  She

Bridge:
G|------- ------- -------|------- ------- -------|------- ------- -------|
D|-----------------------|-----------------------|-----------------------|
A|7----------------------|7----------------------|7----------------------|
E|-----------------------|-----------------------|-----------------------|
  told    me      she     worked  in      the mor   -     ning    and


G|------- ------- -------|------- ------- -------|------- ------- -------|
D|-----------------------|7----------------------|----------------5------|
A|7----------------------|-----------------------|7----------------------|
E|-----------------------|-----------------------|-----------------------|
  star -  ted     to  laugh


G|------- ------- -------|------- ------- -------|------- ------- -------|
D|7----------------------|-----------------------|-----------------------|
A|-----------------------|7----------------------|7----------------------|
E|-----------------------|-----------------------|-----------------------|
                                          I       told    her     I


G|------- ------- -------|------- ------- -------|------- ------- -------|
D|-----------------------|-----------------------|-----------------------|
A|7----------------------|7----------------------|7----------------------|
E|-----------------------|-----------------------|-----------------------|
  didn't,         and     crawled off     to      sleep in        the bath


G|------- ------- -------|------- ------- -------|------- ------- -------|
D|4----------------------|4----------------------|-----------------------|
A|-----------------------|----------------4------|-----------------------|
E|-----------------------|-----------------------|7----------------------|



G|------- ------- -------|
D|-----------------------|
A|9---------------6------|
E|--------7--------------|


Verse:
G|------- ------- -------|------- ------- -------|------- ------- -------|
D|-----------------------|-----------------------|-----------------------|
A|7----------------------|-----------------------|7----------------------|
E|-----------------------|7----------------------|-----------------------|
  And                     when    I       a - woke,


G|------- ------- -------|------- ------- -------|------- ------- -------|
D|-----------------------|-----------------------|-----------------------|
A|-----------------------|7----------------------|----------------5------|
E|7----------------------|-----------------------|7-------7--------------|
  I       was     a - lone,                       this    bird    has flown


G|------- ------- -------|------- ------- -------|------- ------- -------|
D|-----------------------|-----------------------|-----------------------|
A|7----------------------|--------5--------------|7----------------------|
E|-----------------------|7---------------7------|-----------------------|
                                                  So,


G|------- ------- -------|------- ------- -------|------- ------- -------|
D|-----------------------|-----------------------|-----------------------|
A|-----------------------|7----------------------|----------------5------|
E|7----------------------|-----------------------|7----------------------|
  I       lit     a       fire,                   isn't           it


G|------- ------- -------|------- 7------ 9------|------- ------- -------|
D|-----------------------|9----------------------|-----------------------|
A|7----------------------|-----------------------|7----------------------|
E|-----------------------|-----------------------|-----------------------|
  good?                   Nor  -  we  -   gian    wood


G|------- ------- -------|
D|-----------------------|
A|-----------------------|
E|7----------------------|


Outro:
G|------- ------- -------|------- ------- -------|------- ------- -------|
D|-----------------------|-----------------------|-----------------------|
A|7----------------------|-----------------------|7----------------------|
E|-----------------------|7----------------------|-----------------------|



G|------- ------- -------|------- ------- -------|------- ------- -------|
D|-----------------------|-----------------------|-----------------------|
A|-----------------------|7----------------------|----------------5------|
E|7----------------------|-----------------------|7-------7--------------|



G|------- ------- -------|------- ------- -------|------- ------- -------|
D|-----------------------|-----------------------|-----------------------|
A|7----------------------|-----------------------|-----------------------|
E|-----------------------|-----------------------|-----------------------|

Please e-mail me for any corrections.
Comments