Beatles - Norwegian Wood Chords & Tabs

 

Norwegian Wood Chords & Tabs

Beatles Chords & Tabs

Version: 1 Type: Bass Tab 0 ratings
1 star 2 stars 3 stars 4 stars 5 stars
comments

Norwegian Wood Bass Tab

BAND:The Beatles
SONG: Norwegian Wood (this bird has flown)
ARTIST:Lennon/McCartney



             VERSE:1

E:-0-------------0-------------0----0
A:------------------------------2----
D:-------------------------------0-2-
G:-----------------------------------

E:-0-------------0-------------0----0
A:-----------------------------------
D:-----------------------------------
G:-----------------------------------


            CHORUS:
E:-3-----3------5-----------3-----3------5---5-7-----
A:---------------------------------------------------
D:---------------------------------------------------
G:---------------------------------------------------

         VERSE:2
[ Tab from: http://www.guitartabs.cc/tabs/b/beatles/norwegian_wood_btab.html ]
E:-0-------------0-------------0----0
A:-----------------------------------
D:-----------------------------------
G:-----------------------------------

E:-0-------------0-------------0----0
A:------------------------------2----
D:-------------------------------0-2-
G:-----------------------------------


CHORUS:
E:-3-----3------5-----------3-----3------5---5-7-----
A:---------------------------------------------------
D:---------------------------------------------------
G:---------------------------------------------------


VERSE:3

E:-0-------------0-------------0----0
A:-----------------------------------
D:-----------------------------------
G:-----------------------------------

E:-0-------------0-------------0----0
A:------------------------------2----
D:-------------------------------0-2-
G:-----------------------------------
Comments