Beatles - My Bonnie Chords & Tabs

 

My Bonnie Chords & Tabs

Beatles Chords & Tabs

Version: 1 Type: Bass Tab 0 ratings
1 star 2 stars 3 stars 4 stars 5 stars
comments

My Bonnie Bass Tab

MY BONNIE

Trad. arr by Tony Sheridan

Performed by The Beatles with Tony Sheridan

INTRO

   3/4

  t=83
G|-------------------------|-------------------------|
D|-------------------------|-------------------------|
A|-----------------7----7--|-5---------------5-------|
E|-------------------------|-------------------------|


G|-------------------------|-------------------------|
D|-7-----------------------|-7-----------------------|
A|-----------------5----5--|-----------------7-------|
E|-------------------------|-------------------------|


G|-------------------------|-------------------------|
D|-7-----------------------|-------------------------|
A|-------------------------|-------------------------|
E|-------------------------|-5---------------5-------|


G|-------------------------|-------------------------|
D|-------------------------|-----------------6-------|
A|-7-----------------------|-7-------9---------------|
E|-------------------------|-------------------------|


G|-------------------------|-------------------------|
D|-7-----------------------|-------------------------|
A|-----------------7----7--|-5-----------------------|
E|-------------------------|-------------------------|


G|-------------------------|-------------------------|
D|-------------------------|-------------------------|
A|-------------------------|-------------------------|
E|-5-------3-------2-------|-0---------------7-------|


G|-------------------------|-------------------------|
D|-------------------------|-------------------------|
A|-------------------------|-7---------------7-------|
E|-5-----------------------|-------------------------|


G|-----------------6-------|-------------------------|
D|-7-----------------------|-------------------------|
A|---------7---------------|-------------------------|
E|-------------------------|-5-----------------------|

  4/4

  00:34

  t=175
G|---------------------------------|---------------------------------|
D|---------------------------------|-5---5---3---3---2---2-----------|
A|---------------------------------|-------------------------5---5---|
E|---------------------------------|---------------------------------|


VERSE

  00:37

G|---------------------------------|---------------------------------|
D|---------2-------5-------2-------|-3-----------------------3-------|
A|-3-------------------------------|-----------------3---------------|
E|---------------------------------|---------------------------------|


G|---------------------------------|---------------------------------|
D|-------------2---5-------2-------|-------------2---5-------2-------|
A|-3-------------------------------|-3-------------------------------|
E|---------------------------------|---------------------------------|


G|---------------------------------|---------------------------------|
D|-----------------2-------5-------|---------------------------------|
A|-3-------3-----------------------|-5-------3-------2---------------|
E|---------------------------------|-------------------------5-------|


G|---------------------------------|---------------------------------|
D|-------------5-------------------|-----5-------5---5-------5-------|
A|---------------------------------|---------------------------------|
E|-3-------------------------------|-3-------------------------------|


G|---------------------------------|---------------------------------|
D|-------------2---5-------2-------|-3-----------------------3-------|
A|-3-------------------------------|-----------------3---------------|
E|---------------------------------|---------------------------------|


G|---------------------------------|---------------------------------|
D|---------------------------------|-7-------------------------------|
A|-3-------3-------2---------------|-----------------7---------------|
E|-------------------------5-------|---------9---------------9-------|


G|---------------------------------|---------------------------------|
D|---------4-------7-------4-------|-5-------2-------3---------------|
A|-5-------------------------------|-------------------------5-------|
E|---------------------------------|---------------------------------|


G|---------------------------------|---------------------------------|
D|---------------------------------|-5---5---5---5---5---5---5---5---|
A|-3-------3-------3-------3-------|---------------------------------|
E|---------------------------------|---------------------------------|


BRIDGE

  00:59

G|---------------------------------|---------------------------------|
D|---------------------------------|---------------------------------|
A|-3-------3-------3-------3-------|-3-------3-------3-------3-------|
E|---------------------------------|---------------------------------|


G|---------------------------------|---------------------------------|
D|-3-------3-------3-------3-------|---------------------------------|
A|---------------------------------|-5-------5-------5-------5-------|
E|---------------------------------|---------------------------------|


G|---------------------------------|---------------------------------|
D|-5-------3-------2---------------|-5-------3-------2---------------|
A|-------------------------5-------|-------------------------5-------|
E|---------------------------------|---------------------------------|


G|---------------------------------|---------------------------------|
D|---------------------------------|-5---------------5---------------|
A|-3-------3-------3-------3-------|-------------------------5-------|
E|---------------------------------|---------------------------------|

  01:10

G|---------------------------------|---------------------------------|
D|---------------------------------|---------------------------------|
A|-3-------3-------3-------3-------|-3-------3-------3-------3-------|
E|---------------------------------|---------------------------------|


G|---------------------------------|---------------------------------|
D|-3-------3-------3-------3-------|---------------------------------|
A|---------------------------------|-5-------5-------5-------5-------|
E|---------------------------------|---------------------------------|


G|---------------------------------|---------------------------------|
D|-5-------5-------3-------2-------|---------------------------------|
A|---------------------------------|-5-------5-------3-------2-------|
E|---------------------------------|---------------------------------|

  01:18

G|---------------------------------|---------------------------------|
D|---------------------------------|-5-------3-------2---------------|
A|-3-------3-------3-------3-------|-------------------------5-------|
E|---------------------------------|---------------------------------|


GUITAR SOLO

  01:21

G|---------------------------------|---------------------------------|
D|-----------------2-------5-------|---------2-------5-------2-------|
A|-3-------------------------------|-3-------------------------------|
E|---------------------------------|---------------------------------|


G|---------------------------------|---------------------------------|
D|---------2-------5-------2-------|-5-------3-------5---------------|
A|-3-------------------------------|-------------------------7-------|
E|---------------------------------|---------------------------------|

[ Tab from: http://www.guitartabs.cc/tabs/b/beatles/my_bonnie_btab.html ]
G|---------------------------------|---------------------------------|
D|-3-------2-----------------------|---------------------------------|
A|-----------------5-------3-------|-5-------3-----------------------|
E|---------------------------------|-----------------7-------5-------|


G|---------------------------------|---------------------------------|
D|---------2-------5-------2-------|-----------------2-------5-------|
A|-3-------------------------------|-3-------------------------------|
E|---------------------------------|---------------------------------|


G|---------------------------------|---------------------------------|
D|-5-------5-------5-------5-------|-3-------3-------3-------3-------|
A|---------------------------------|---------------------------------|
E|---------------------------------|---------------------------------|


G|---------------------------------|---------------------------------|
D|-----------------2-------5-------|-5-------3-------2---------------|
A|-3-------3-----------------------|-------------------------5-------|
E|---------------------------------|---------------------------------|

  01:37

G|---------------------------------|---------------------------------|
D|-----------------5-------2-------|---------------------------------|
A|-3-------------------------------|-3-------3-------3-------3-------|
E|---------------------------------|---------------------------------|


G|---------------------------------|---------------------------------|
D|---------------------------------|---------------------------------|
A|-3-------3-------3-------3-------|-3-------3-------3-------3-------|
E|---------------------------------|---------------------------------|


G|---------------------------------|---------------------------------|
D|-3-------3-------3-------3-------|-3-------3-------3-------3-------|
A|---------------------------------|---------------------------------|
E|---------------------------------|---------------------------------|


G|---------------------------------|---------------------------------|
D|---------------------------------|---------------------------------|
A|-3-------3-------3-------3-------|-3-------3-------3-------3-------|
E|---------------------------------|---------------------------------|


G|---------------------------------|---------------------------------|
D|-5-------5-------5-------5-------|-3-------3-------3-------3-------|
A|---------------------------------|---------------------------------|
E|---------------------------------|---------------------------------|


G|---------------------------------|---------------------------------|
D|---------------------------------|-5---5---5---5---5---5---5-------|
A|-3-------3-------3-------3-------|---------------------------------|
E|---------------------------------|---------------------------------|


VERSE

  01:53

G|---------------------------------|---------------------------------|
D|---------2-------5-------2-------|-3-----------------------3-------|
A|-3-------------------------------|-----------------3---------------|
E|---------------------------------|---------------------------------|


G|---------------------------------|---------------------------------|
D|---------2-------5-------2-------|-----------------5-------2-------|
A|-3-------------------------------|---------3-----------------------|
E|---------------------------------|---------------------------------|


G|---------------------------------|---------------------------------|
D|---------------------------------|---------------------------------|
A|-3-------3-------3-------3-------|-5-------3-------2---------------|
E|---------------------------------|-------------------------5-------|


G|---------------------------------|---------------------------------|
D|-5-------5-------5-------5-------|-5-------5-------5-------5-------|
A|---------------------------------|---------------------------------|
E|---------------------------------|---------------------------------|


G|---------------------------------|---------------------------------|
D|---------2-------5-------2-------|-3-----------------------3-------|
A|-3-------------------------------|-----------------3---------------|
E|---------------------------------|---------------------------------|


G|---------------------------------|---------------------------------|
D|---------------------------------|-7-------------------------------|
A|-3-------3-------2---------------|-----------------7---------------|
E|-------------------------5-------|---------9---------------9-------|


G|---------------------------------|---------------------------------|
D|---------4-------7-------4-------|-5-------2-------3---------------|
A|-5-------------------------------|-------------------------5-------|
E|---------------------------------|---------------------------------|


G|---------------------------------|---------------------------------|
D|---------------------------------|-5---5-------5---5---5---5---5---|
A|-3-------3-------3-------3-------|---------------------------------|
E|---------------------------------|---------------------------------|


BRIDGE

  02:14

G|---------------------------------|---------------------------------|
D|-------------2---5-------2-------|-------------2---5-------2-------|
A|-3-------------------------------|-3-------------------------------|
E|---------------------------------|---------------------------------|


G|---------------------------------|---------------------------------|
D|-3-------3-------3-------3-------|---------------------------------|
A|---------------------------------|-5-------5-------5-------5-------|
E|---------------------------------|---------------------------------|


G|---------------------------------|---------------------------------|
D|-5-------5-------5-------5-------|-5-------5-------5-------5-------|
A|---------------------------------|---------------------------------|
E|---------------------------------|---------------------------------|


G|---------------------------------|---------------------------------|
D|---------------------------------|-5-----------5---5-------5-------|
A|-3-------3-------3-------3-------|---------------------------------|
E|---------------------------------|---------------------------------|

  02:25

G|---------------------------------|---------------------------------|
D|---------------------------------|---------------------------------|
A|-3-------3-------3-------3-------|-3-------3-------3-------3-------|
E|---------------------------------|---------------------------------|


G|---------------------------------|---------------------------------|
D|-3-------3-------3-------3-------|---------------------------------|
A|---------------------------------|-5-------5-------5-------5-------|
E|---------------------------------|---------------------------------|


G|---------------------------------|---------------------------------|
D|-5-------3-------2---------------|-5-------3-------2---------------|
A|-------------------------5-------|-------------------------5-------|
E|---------------------------------|---------------------------------|


G|---------------------------------|---------------------------------|
D|---------2-------3-------4-------|-5-------------------------------|
A|-3-------------------------------|-----7---5-----------------------|
E|---------------------------------|-------------8-----------8-------|
Comments