Beatles - Mother Natures Son Chords & Tabs

 

Mother Natures Son Chords & Tabs

Beatles Chords & Tabs

Version: 2 Type: Tab 0 ratings
1 star 2 stars 3 stars 4 stars 5 stars
comments

Mother Natures Son Tab

	This is the song Mother Natures Son by the Beatles that 
	appeared on the White Album in 1968.  Paul McCartney wrote
	and sung the song.  It is generally slow and soft.

INTRO:

|-------------------------------------|
|-------3--------3--------3-----------|
|---4--------2--------1---------------|
|-------------------------------------|
|-------------------------------------|
|--------------------------------0----|


|---5------------|---3------------|---0------------|-3-3p2----------|	
|------3--3--3---|------3--3--3---|-------3---3----|--------3--3--3-|
|------2--2--2---|------2--2--2---|-------2---2----|--------2--2--2-|
|------0--0--0---|------0--0--0---|-------0---0----|--------0--0--0-|
|----------------|----------------|----------------|----------------|
|----------------|----------------|----------------|----------------|


|---0h2----------|---2-2h3--------|--2-0h2---------|---0h2----------|
|---------3---3--|----------3--3--|---------3-3-3--|--------3--3--3-|
|---------2---2--|----------2--2--|---------2-2-2--|--------2--2--2-|
|---------0---0--|----------0--0--|---------0-0-0--|--------0--0--0-|
|----------------|----------------|----------------|----------------|
|----------------|----------------|----------------|----------------|


VERSE:
[ Tab from: http://www.guitartabs.cc/tabs/b/beatles/mother_natures_son_tab_ver_2.html ]
||---2-----------|---2-2h3--------|---3--3---------|--2-2-----------|
||-------3---3---|----------3--3--|----------3--3--|--------3--3--3-|
||-------2---2---|----------2--2--|----------2--2--|--------2--2--2-|
||-------0---0---|----------0--0--|----------0--0--|--------0--0--0-|
||---------------|----------------|----------------|----------------|
||---------------|----------------|----------------|----------------|


|-------2--2--2--|-------2--2--3--|-------2--2--2--|-------2--2--2--|
|-------3--3--3--|-------3--3--2--|-------3--3--3--|-------3--3--3--|
|---4------------|---2------------|---1------------|-------1--1--1--|
|----------------|----------------|----------------|----------------|
|----------------|----------------|----------------|----------------|
|----------------|----------------|----------------|---0------------|


|---0--0----2--2-|---0--0----2--2-|---0--0----2--2-|---0--0----2--2-|    
|---2--2----3--3-|---2--2----3--3-|---2--2----3--3-|---2--2----3--3-| 
|---2--2----2--2-|---2--2----2--2-|---2--2----2--2-|---2--2----2--2-|
|---2--2----0--0-|---2--2----0--0-|---2--2----0--0-|---2--2----0--0-|
|---0--0----0--0-|---0--0----0--0-|---0--0----0--0-|---0--0----0--0-|
|----------------|----------------|----------------|----------------|


||---2----2---2--|---3p2--1--1--1-|--3/5--3--3---3-|--5p3--2--2-2-2-||||
||--------3---3--|-----------1--1-|----------3---3-|----------3-3-3-||||
|| -------2---2--|-----------2--2-|----------4---4-|----------2-2-2-||||
||--------0---0--|-----------0--0-|----------0---0-|----------0-0-0-||||
||------- 0---0--|-----------0--0-|----------------|----------0-0-0-||||
||---------------|----------------|----------------|----------------||||




LYRICS:		Born a poor young country boy-Mother Nature's Son.
		All day long I'm sitting singing songs for everyone.

		Sit beside a mountain stream-see her waters rise.
		Listen to the pretty sound of music as she flies.

		Find me in my field of grass-Mother Natures Son.
		Swaying daisies sing a lazy song beneath the sun.
		Mother Natures Son.



					- Stuart Watson
Comments