Beatles - Michelle (intro) Chords & Tabs

 

Michelle (intro) Chords & Tabs

Beatles Chords & Tabs

Version: 1 Type: Tab 0 ratings
1 star 2 stars 3 stars 4 stars 5 stars
comments

Michelle (intro) Tab

----------------------------------PLEASE NOTE---------------------------------#
#This file is the author's own work and represents their interpretation of the #
#song. You may only use this file for private study, scholarship, or research. #
#------------------------------------------------------------------------------#
TAB: Michelle 
MUSIC BY: The Beatles (Released on the "Rubber Soul" album)  
TABBED BY: rgm_lennon@yahoo.com 
 
                              
                               Michelle 
                             by the Beatles 
Intro :          
 
1|------8-----8-----8-----8-----8--6--4-----8--8--8--8-
2|------9-----9-----9----------------------------------
-9-----6--6--4--8--8--8--8--8-------------------------- 
3|--10-----9-----8-----7-----6-----------9--9--9--9--9- 
4|----------------------------------------------------- 
5|----------------------------------------------------- 
6|----------------------------------------------------- 

|----------------------------------------------------- 
|----------------------------------------------------- 
|----------------------------------------------------- 
|------7--8--10--11-----------8----------------------- 
|8-8-10------------11-10-10-11-6-8-8-10---6--5--7--5-- 
|----------------------------------------------------- 
 
1|----------------------------------------------------- 
2|----------------------------------------------------- 
3|----------------------------------------------------- 
4|--6--------------------5----------------------------- 
5|-----8--7--3--5--7--8-------------------------------- 
6|----------------------------------------------------- 


 
[ Tab from: http://www.guitartabs.cc/tabs/b/beatles/michelle_intro_tab.html ]
Comments