Beatles - Michelle Chords & Tabs

 

Michelle Chords & Tabs

Beatles Chords & Tabs

Version: 1 Type: Bass Tab 0 ratings
1 star 2 stars 3 stars 4 stars 5 stars
comments

Michelle Bass Tab

Title        : Michelle
Artist/Group : The Beatles     Album : Rubber Soul
Info         : 4 String Standard Bass 
Date - Time  : 7/30/2002 - 5:20:57 PM
Created by   : Ken Robertson
[ Tab from: http://www.guitartabs.cc/tabs/b/beatles/michelle_btab.html ]
G-----8-9---------|---------------------------------|-
D---9-------9---9-|---9-9-7-----7-------------------|-
A-------------7---|-7-------7-5---5-4---------------|-
E-----------------|-------------------6-7-6-7-7-4-6-|-
                                                        
G-----------------------------------|---------------|-
D-----9-9-7-----7-------------------|---------------|-
A---7-------7-5---5-4-----------4-6-|-7---5---7---5-|-
E---------------------6-7-6-7-7-----|---7-------7---|-
                                                              
G---------------------------------------------8-9-------|-
D-----------------------------------------7-9-----9---9-|-
A---10-8-7---------7-----------6---7-9-10-----------7---|-
E----------10-8-10---8-----7-9---7----------------------|-

G-----------------------------------|---------------|-
D-----9-9-7-----7-------------------|---------------|-
A---7-------7-5---5-4-----------4-6-|-7---5---7---5-|-
E---------------------6-7-6-7-7-----|---7-------7---|-

G---------------------------------------------8-9-------|-
D-----------------------------------------7-9-----9---9-|-
A---10-8-7---------7-----------6---7-9-10-----------7---|-
E----------10-8-10---8-----7-9---7----------------------|-

Ending:

G-------------------------------------8-9-------|-
D-----9-9-7-----7-------------------9-----9---9-|-
A---7-------7-5---5-4-----------4-6---------7---|-
E---------------------6-7-6-7-7-----------------|-

*****the song fades out over the same pattern for the whole song*****
Comments