Beatles - Maxwells Silver Hammer Chords & Tabs

 

Maxwells Silver Hammer Chords & Tabs

Beatles Chords & Tabs

Version: 1 Type: Tab 0 ratings
1 star 2 stars 3 stars 4 stars 5 stars
comments

Maxwells Silver Hammer Tab

           The Beatles

       Maxwell's Silver Hammer
    by John Lennon, Paul McCartney
     (from the album Abbey Road)


I always play the normal chords for the verses but this is how the
chorus and guitar solo go.

[ Tab from: http://www.guitartabs.cc/tabs/b/beatles/maxwells_silver_hammer_tab.html ]
  Bang, bang, Maxwells silver hammer came down on her head
e|---------------------------------------------------------------|
B|---------------------------------------------------------------|
G|------------------------------------------------------7--------|
D|--0------4--------7-------6-------4----0----5--9--------9-7-4--|
A|---------------------------------------------------------------|
E|---------------------------------------------------------------|

  Clang, clang, maxwells silver hammer made sure that she was dead
e|---------------------------------------------------------------|
B|--------------------8------------------------------------------|
G|--7-------9----------------9------7----------------------------|
D|---------------------------------------9-----7--5----3---1---0-|
A|---------------------------------------------------------------|
E|---------------------------------------------------------------|

You may need to change the end a little for some choruses
but this should do.
Any questions, comments or insults are welcome:  JRingoF@juno.com
Comments