Beatles - Mailman Bring Me No More Blues Chords & Tabs

 

Mailman Bring Me No More Blues Chords & Tabs

Beatles Chords & Tabs

Version: 1 Type: Bass Tab 0 ratings
1 star 2 stars 3 stars 4 stars 5 stars
comments

Mailman Bring Me No More Blues Bass Tab

MAILMAN, BRING ME NO MORE BLUES


Written by Ruth Roberts, Bill Katz & Stanley Clayton

INTRO (fade in)

  00:00

  t=91
G|--------------9--11------9----6--|--------------9--11------9----6--|
D|-7-------------------------------|-7-------------------------------|
A|---------------------------------|---------------------------------|
E|---------------------------------|---------------------------------|



G|--------------9--11------9-------|---------9--9--9--7--6-----------|
D|-7-------------------------------|------------------------9--7-----|
A|---------------------------------|-7-------------------------------|
E|---------------------------------|---------------------------------|



G|--------------9--11------9-------|--------------9--11------9----6--|
D|-7-------------------------------|-7-------------------------------|
A|---------------------------------|---------------------------------|
E|---------------------------------|---------------------------------|



G|--------------9--11------9-------|---------------------------------|
D|-7-------------------------------|---------------------------------|
A|---------------------------------|-7----7--9----7--7----7--9-------|
E|---------------------------------|---------------------------------|


VERSE

  00:20

G|--------------9--11------9----6--|--------------9--11------9----6--|
D|-7-------------------------------|-7-------------------------------|
A|---------------------------------|---------------------------------|
E|---------------------------------|---------------------------------|



G|--------------9--11------9----6--|--------------9--11------11-\----|
D|-7-------------------------------|-7-------------------------------|
A|---------------------------------|---------------------------------|
E|---------------------------------|---------------------------------|



G|---------------------------------|---------------------------------|
D|-----------------9-------7-------|--------------7--9-------7-------|
A|-5----------------------------9--|-5-------------------------------|
E|---------------------------------|---------------------------------|



G|---------11---9--11------9----6--|--------------9--11------9-\-----|
D|---------------------------------|-7-------------------------------|
A|---------------------------------|---------------------------------|
E|-5-------------------------------|---------------------------------|



G|---------------------------------|---------------------------------|
D|--------------9--11---9--9-\-----|--------------7--9-------7-------|
A|-7-------------------------------|-5----------------------------7--|
E|---------------------------------|---------------------------------|



G|---------------------------------|---------9--9--9--7--6-----------|
D|---------------------------------|------------------------9--7-----|
A|--------------4--5-------6-------|-7-------------------------------|
E|-5-------------------------------|---------------------------------|


INTERLUDE


  00:52
[ Tab from: http://www.guitartabs.cc/tabs/b/beatles/mailman_bring_me_no_more_blues_btab.html ]
G|--------------9--11------9-------|--------------9--11------9----6--|
D|-7-------------------------------|-7-------------------------------|
A|---------------------------------|---------------------------------|
E|---------------------------------|---------------------------------|



G|--------------9--11------9-------|---------------------------------|
D|-7-------------------------------|---------------------------------|
A|---------------------------------|-7----7--9----7--7----7--9-------|
E|---------------------------------|---------------------------------|


VERSE

  01:02

G|--------------9--11------11---9--|--------------9--11------11---9--|
D|-7-------------------------------|-7-------------------------------|
A|---------------------------------|---------------------------------|
E|---------------------------------|---------------------------------|



G|--------------9--11------11---9--|-----------------6----7--9----6--|
D|-7-------------------------------|-7-------9----9------------------|
A|---------------------------------|---------------------------------|
E|---------------------------------|---------------------------------|



G|-7-------------------------------|---------------------------------|
D|--------------7--9-------7-------|--------------7--9-------7-------|
A|------------------------------9--|-5-------------------------------|
E|---------------------------------|---------------------------------|



G|--------------9--11------11---9--|-----------7--9--11------11-\----|
D|-7-------------------------------|-7-------------------------------|
A|---------------------------------|---------------------------------|
E|---------------------------------|---------------------------------|



G|---------------------------------|---------------------------------|
D|--------------9--11------9-------|--------------7--9---------------|
A|-7----------------------------9--|-5-----------------------9-------|
E|---------------------------------|---------------------------------|



G|---------------------------------|---------------------------------|
D|-7------------7--9-------7-------|---------------------------------|
A|----------------------9----------|-7----7--9----7--7-------9-------|
E|---------------------------------|---------------------------------|


OUTRO

  01:34

G|--------------9--11------11---9--|--------------9--11------11---9--|
D|-7-------------------------------|-7-------------------------------|
A|---------------------------------|---------------------------------|
E|---------------------------------|---------------------------------|



G|--------------9--11------11---9--|-----------------6----7--9----6--|
D|-7-------------------------------|-7-------9-----------------------|
A|---------------------------------|---------------------------------|
E|---------------------------------|---------------------------------|



G|-7-------------------------------|---------------------------------|
D|--------------7--9-------7----4--|--------------7--9-------7-------|
A|---------------------------------|-5-------------------------------|
E|---------------------------------|---------------------------------|
                                                             FADE OUT
Comments