Beatles - Magical Mystery Tour Chords & Tabs

 

Magical Mystery Tour Chords & Tabs

Beatles Chords & Tabs

Version: 1 Type: Bass Tab 0 ratings
1 star 2 stars 3 stars 4 stars 5 stars
comments

Magical Mystery Tour Bass Tab

Title        : Magical Mystery Tour
Artist/Group : The Beatles     Album : Magical Mystery Tour
Info         : 4 String Standard Bass 
Date - Time  : 8/1/2002 - 7:48:16 PM
Created by   : Ken Robertson

G---------|---------------|----------------------------------|
D-----7---|---------------|-2---2---2---2---0h-2-2-2-2-------|
A---5---7-|---------------|----------------------------5-2---|
E---------|-0-3-5---0-3-5-|--------------------------------5-|
                                    
G---------------------------------|
D---------------------------------|
A---------------------------------|
E---3---3---3---3---5---5---5---5-|
                                                                        
G------------------------------------|-------------------------------|
D---0h-2-2-2-2-2-2-2-2-2-2-2-2-------|-------------------------------|
A------------------------------5-2---|-------------------------------|
E----------------------------------5-|-3---3---3---3---5---5---5---5-|
                        
G-------------------|
D-----------7---7-7-|
A---5-3-2-1---------|
E-------------------|

G-----------------|---------------------------------|---------------------|
D-----------------|-2-2-2-2-2-2-2-2-2-2-2-2-2-------|---------------------|
A---7-------7-----|---------------------------5-2---|---------------------|
E-----3-5-----3-5-|-------------------------------5-|-3-3-3--3---5-5-5--5-|

G-----------------------------------|---------------------|
D---2-2-2-2-2-2-2-2-2-2-2-2-2-------|---------------------|
A-----------------------------5-2---|---------------------|
E---------------------------------5-|-3-3-3--3---5-5-5--5-|
[ Tab from: http://www.guitartabs.cc/tabs/b/beatles/magical_mystery_tour_btab.html ]
G-----------------------------------------8-11-8-----------11----
D-----------7-7-7-7-7-7-7-7-9-9-9-9-9-9-9---------------------11-
A---5-3-2-1--------------------------------------9-9-9-9-9-------
E----------------------------------------------------------------

G-----------------8-11-8----------------------------------------|
D---9-9-9-9-9-9-9-----------------------------------------------|
A------------------------9-9-9-9-9-9-9--------------------------|
E--------------------------------------4-5--5--5--5--7--7--7--7-|

G-----------------|---------------------------------|
D-----------------|-2-2-2-2-2-2-2-2-2-2-2-2-2-------|
A---7-------------|---------------------------5-2---|
E-----3-5---0-3-5-|-------------------------------5-|

G-----------------------------------|
D-----------------------------------|
A---------------------------------5-|
E---3-3-3-3-3-3-3-3-5-5-5-5-5-5-5---|

G-----------------------------------|---------------------------------|
D---2-2-2-2-2-2-2-2-2-2-2-2-2-------|---------------------------------|
A-----------------------------5-2---|---------------------------------|
E---------------------------------5-|-3-3-3-3-3-3-3-3-5-5-5-5-5-5-5-5-|

G-------------------------------------------------------------|
D-----------7--7-7-7--4-----------7-7-7-7-7-7-7---7-7---7-----|
A---5-3-2-1-------------7-5-3-2-1-------------------------5\0-|
E-----------------------------------------------5-----5-------|

G---------7-----------7\2------------7\2-|
D---7-7-7-----7-7-7-7--------7-7-7-7-----|
A----------------------------------------|
E----------------------------------------|

G-------------------------------------|
D---7-7-7\5-----7\5-----7\5-----7\5---|
A-----------5-------5-------5-------5-|
E-------------------------------------|


*****Song fades out on this last run*****
Comments