Beatles - Love Me Do Chords & Tabs

 

Love Me Do Chords & Tabs

Beatles Chords & Tabs

Version: 3 Type: Bass Tab 0 ratings
1 star 2 stars 3 stars 4 stars 5 stars
comments

Love Me Do Bass Tab

LOVE ME DO

Written by Paul McCartney & John Lennon

INTRO
  t=148
G|---------------------------------|---------------------------------|
D|-5---------------------------5---|-----------------5---------------|
A|-----------------5---------------|-3-----------3-------------------|
E|---------------------------------|---------------------------------|

G|---------------------------------|---------------------------------|
D|-5---------------------------5---|-----------------5---------------|
A|-----------------5---------------|-3-----------3-------------------|
E|---------------------------------|---------------------------------|

G|---------------------------------|---------------------------------|
D|-5-----------5-------------------|-----------------5---------------|
A|-----------------5---------------|-3-----------3-------------------|
E|---------------------------------|---------------------------------|

G|---------------------------------|---------------------------------|
D|-5-----------5-------------------|-5-----------5-------------------|
A|-----------------5---------------|-----------------5---------------|
E|---------------------------------|---------------------------------|

VERSE

G|---------------------------------|---------------------------------|
D|-5-------------------------------|-----------------5---------------|
A|-----------------5---------------|-3-----------3-------------------|
E|---------------------------------|---------------------------------|

G|---------------------------------|---------------------------------|
D|-5-----------5-------------------|-----------------5---------------|
A|-----------------5---------------|-3-----------3-------------------|
E|---------------------------------|---------------------------------|

G|---------------------------------|---------------------------------|
D|-5-------------------------------|-----------------5---------------|
A|-----------------5---------------|-3-----------3-------------------|
E|---------------------------------|---------------------------------|

G|---------------------------------|---------------------------------|
D|-----------------5---------------|-----------------5---------------|
A|-3-------------------------------|-3-------------------------------|
E|---------------------------------|---------------------------------|

G|---------------------------------|---------------------------------|
D|---------------------------------|-5-------------------------------|
A|-3-------------------------------|-----------------5---------------|
E|---------------------------------|---------------------------------|

G|---------------------------------|---------------------------------|
D|-----------------5---------------|-5-------------------------------|
A|-3-----------3-------------------|-----------------5---------------|
E|---------------------------------|---------------------------------|

G|---------------------------------|
D|-----------------5---------------|
A|-3-----------3-------------------|
E|---------------------------------|

VERSE

G|---------------------------------|---------------------------------|
D|-5-------------------------------|-----------------5---------------|
A|-----------------5---------------|-3-----------3-------------------|
E|---------------------------------|---------------------------------|

G|---------------------------------|---------------------------------|
D|-5-------------------------------|-----------------5---------------|
A|-----------------5---------------|-3-----------3-------------------|
E|---------------------------------|---------------------------------|

G|---------------------------------|---------------------------------|
D|-5-------------------------------|-----------------5---------------|
A|-----------------5---------------|-3-----------3-------------------|
E|---------------------------------|---------------------------------|

G|---------------------------------|---------------------------------|
D|-----------------5---------------|-----------------5---------------|
A|-3-------------------------------|-3-----------3-------------------|
E|---------------------------------|---------------------------------|

G|---------------------------------|---------------------------------|
D|---------------------------------|-5-------------------------------|
A|-3-------------------------------|-----------------5---------------|
E|---------------------------------|---------------------------------|

G|---------------------------------|---------------------------------|
D|-----------------5---------------|-5-------------------------------|
A|-3-----------3-------------------|-----------------5---------------|
E|---------------------------------|---------------------------------|

G|---------------------------------|
D|-5-------5-------4-------2-------|
A|---------------------------------|
E|---------------------------------|

BRIDGE

G|---------------------------------|---------------------------------|
D|-----------------7---------------|-----------------7---------------|
A|-5-------------------------------|-5-----------5-------------------|
E|---------------------------------|---------------------------------|

G|---------------------------------|---------------------------------|
D|-----------------5---------------|-5-------------------------------|
A|-3---------------------------3---|-----------------5---------------|
E|---------------------------------|---------------------------------|

G|---------------------------------|---------------------------------|
D|-----------------7---------------|-----------------7---------------|
A|-5-------------------------------|-5-----------5-------------------|
E|---------------------------------|---------------------------------|
[ Tab from: http://www.guitartabs.cc/tabs/b/beatles/love_me_do_btab_ver_3.html ]
G|---------------------------------|---------------------------------|
D|-----------------5---------------|-5---------------5---------------|
A|-3-----------------------3-------|---------5-----------------------|
E|---------------------------------|---------------------------------|

VERSE

G|---------------------------------|---------------------------------|
D|-5-------------------------------|-----------------5---------------|
A|-----------------5---------------|-3-----------3-------------------|
E|---------------------------------|---------------------------------|

G|---------------------------------|---------------------------------|
D|-5-------------------------------|-----------------5---------------|
A|-----------------5---------------|-3-----------3-------------------|
E|---------------------------------|---------------------------------|

G|---------------------------------|---------------------------------|
D|-5-------------------------------|-----------------5---------------|
A|-----------------5---------------|-3-----------3-------------------|
E|---------------------------------|---------------------------------|

G|---------------------------------|---------------------------------|
D|-----------------5---------------|-----------------5---------------|
A|-3-------------------------------|-3-------------------------------|
E|---------------------------------|---------------------------------|

G|---------------------------------|---------------------------------|
D|---------------------------------|-5-------------------------------|
A|-3-------------------------------|-----------------5---------------|
E|---------------------------------|---------------------------------|

G|---------------------------------|---------------------------------|
D|-----------------5---------------|-5-------------------------------|
A|-3-----------3-------------------|-----------------5---------------|
E|---------------------------------|---------------------------------|

G|---------------------------------|
D|-5-------5-------4-------2-------|
A|---------------------------------|
E|---------------------------------|

HARMONICA SOLO

G|---------------------------------|---------------------------------|
D|-----------------7---------------|-----------------7---------------|
A|-5-------------------------------|-5-----------5-----------5-------|
E|---------------------------------|---------------------------------|

G|---------------------------------|---------------------------------|
D|-----------------5---------------|-5-----------5-------------------|
A|-3-------------------------------|-----------------5---------------|
E|---------------------------------|---------------------------------|

G|---------------------------------|---------------------------------|
D|-----------------7---------------|-----------------7---------------|
A|-5-------------------------------|-5-----------5-------------------|
E|---------------------------------|---------------------------------|

G|---------------------------------|---------------------------------|
D|-----------------5---------------|-5-----------5-------------------|
A|-3-----------3-------------------|-----------------5---------------|
E|---------------------------------|---------------------------------|

G|---------------------------------|---------------------------------|
D|-5-----------5-------------------|-5-----------5-------------------|
A|-----------------5---------------|-----------------5---------------|
E|---------------------------------|---------------------------------|

G|---------------------------------|---------------------------------|
D|-5-----------5-------------------|-5-------------------------------|
A|-----------------5---------------|-----------------5---------------|
E|---------------------------------|---------------------------------|

VERSE

G|---------------------------------|---------------------------------|
D|-5-------------------------------|-----------------5---------------|
A|-----------------5---------------|-3-----------3-------------------|
E|---------------------------------|---------------------------------|

G|---------------------------------|---------------------------------|
D|-5-------------------------------|-----------------5---------------|
A|-----------------5---------------|-3-----------3-------------------|
E|---------------------------------|---------------------------------|

G|---------------------------------|---------------------------------|
D|-5-------------------------------|-----------------5---------------|
A|-----------------5---------------|-3-----------3-------------------|
E|---------------------------------|---------------------------------|

G|---------------------------------|---------------------------------|
D|-----------------5-----------5---|-----------------5-----------5---|
A|-3-------------------------------|-3-------------------------------|
E|---------------------------------|---------------------------------|

G|---------------------------------|---------------------------------|
D|---------------------------------|-5-------------------------------|
A|-3-------------------------------|-----------------5---------------|
E|---------------------------------|---------------------------------|

G|---------------------------------|---------------------------------|
D|-----------------5---------------|-5-------------------------------|
A|-3-----------3-------------------|-----------------5---------------|
E|---------------------------------|---------------------------------|

G|---------------------------------|---------------------------------|
D|-----------------5---------------|-5-------------------------------|
A|-3-----------3-------------------|-----------------5---------------|
E|---------------------------------|---------------------------------|

G|---------------------------------|---------------------------------|
D|-----------------5---------------|-5-------------------------------|
A|-3-----------3-------------------|-----------------5---------------|
E|---------------------------------|---------------------------------|

G|---------------------------------|
D|-----------------5---------------|
A|-3-----------3-------------------|
E|---------------------------------|FADE OUT
Comments