Beatles - Like Dreamers Do Chords & Tabs

 

Like Dreamers Do Chords & Tabs

Beatles Chords & Tabs

Version: 3 Type: Bass Tab 0 ratings
1 star 2 stars 3 stars 4 stars 5 stars
comments

Like Dreamers Do Bass Tab

LIKE DREAMERS DO

Written by Paul McCartney

INTRO

G|---------------------------------|---------------------------------|
D|-3---------------4---------------|-5---------------6---------------|
A|---------4---------------5-------|---------6---------------7-------|
E|---------------------------------|---------------------------------|

VERSE

G|---------------------------------|---------------------------------|
D|-7-------------------------------|-7-------------------------------|
A|---------------------------------|---------------------------------|
E|---------------------------------|---------------------------------|

G|---------------------------------|---------------------------------|
D|-4-------------------------------|-4-------------------------------|
A|---------------------------------|---------------------------------|
E|---------------------------------|---------------------------------|

G|---------------------------------|---------------------------------|
D|---------------------------------|---------------------------------|
A|-2-------------------------------|-2-------------------------------|
E|---------------------------------|---------------------------------|

G|---------------------------------|---------------------------------|
D|---------------------------------|-2-------0-----------------------|
A|-4-------------------------------|-----------------4-------2-------|
E|---------------------------------|---------------------------------|

VERSE

G|---------------------------------|---------------------------------|
D|-------------------------2-------|-------------------------2-------|
A|-0-----------4-------------------|-0-----------4-------------------|
E|---------------------------------|---------------------------------|

G|---------------------------------|---------------------------------|
D|-4-----------4-------------------|-4-----------4-----------4-------|
A|-----------------4-------4-------|-----------------4---------------|
E|---------------------------------|---------------------------------|

G|---------------------------------|---------------------------------|
D|-----------------4-------4-------|-----------------4---------------|
A|-2-----------2-------------------|-2-----------2-----------2-------|
E|---------------------------------|---------------------------------|

G|---------------------------------|---------------------------------|
D|---------------------------------|-2-------0-----------------------|
A|-4-----------4-----------4-------|-----------------4-------2-------|
E|---------------------------------|---------------------------------|

CHORUS

G|---------------------------------|---------------------------------|
D|---------------------------------|---------------------------------|
A|-0----------0----------0---------|-0----------0----------0---------|
E|---------------------------------|---------------------------------|

G|---------------------------------|---------------------------------|
D|---------------------------------|---------------------------------|
A|-4----------4----------4---------2/4----------4----------4---------|
E|---------------------------------|---------------------------------|

G|---------------------------------|---------------------------------|
D|-----------------4-------3-------|-2-------------------------------|
A|-2-----------2-------------------|---------------------------------|
E|---------------------------------|---------------------------------|

G|---------------------------------|---------------------------------|
D|-----------------2---------------|---------------------------------|
A|-0-----------4-----------4-------|-0-------2-------3-------4-------|
E|---------------------------------|---------------------------------|

BRIDGE

G|---------------------------------|---------------------------------|
D|-0-----------0---0-------0-------|-2-----------2---2-------2-------|
A|---------------------------------|---------------------------------|
E|---------------------------------|---------------------------------|

G|---------------------------------|---------------------------------|
D|-------------------------2-------|-------------------------2-------|
A|-0-----------4-------------------|-0-----------4-------------------|
E|---------------------------------|---------------------------------|

G|---------------------------------|---------------------------------|
D|-----------------4-------4-------|-----------------4---------------|
A|-2-----------2-------------------|-2-----------2-----------2-------|
E|---------------------------------|---------------------------------|

G|---------------------------------|---------------------------------|
D|-2----------2----------2---------|-2----------2----------2---------|
A|---------------------------------|---------------------------------|
E|---------------------------------|---------------------------------|

VERSE

G|---------------------------------|---------------------------------|
D|-------------------------2-------|-------------------------2-------|
A|-0-----------4-------------------|-0-----------4-------------------|
E|---------------------------------|---------------------------------|

G|---------------------------------|---------------------------------|
D|-4-----------4-------------------|-4-----------4-----------4-------|
A|-----------------4-------4-------|-----------------4---------------|
E|---------------------------------|---------------------------------|

G|---------------------------------|---------------------------------|
D|-----------------4-------4-------|-----------------4---------------|
A|-2-----------2-------------------|-2-----------2-----------2-------|
E|---------------------------------|---------------------------------|

G|---------------------------------|---------------------------------|
D|---------------------------------|-2-------0-----------------------|
A|-4-----------4-----------4-------|-----------------4-------2-------|
E|---------------------------------|---------------------------------|

VERSE

G|---------------------------------|---------------------------------|
D|-------------------------2-------|-------------------------2-------|
A|-0-----------4-------------------|-0-----------4-------------------|
E|---------------------------------|---------------------------------|

G|---------------------------------|---------------------------------|
D|-4-----------4-------------------|-4-----------4-----------4-------|
A|-----------------4-------4-------|-----------------4---------------|
E|---------------------------------|---------------------------------|

G|---------------------------------|---------------------------------|
D|-----------------4-------4-------|-----------------4---------------|
A|-2-----------2-------------------|-2-----------2-----------2-------|
E|---------------------------------|---------------------------------|
[ Tab from: http://www.guitartabs.cc/tabs/b/beatles/like_dreamers_do_btab_ver_3.html ]
G|---------------------------------|---------------------------------|
D|---------------------------------|-2-------0-----------------------|
A|-4-----------4---4-------4-------|-----------------4-------2-------|
E|---------------------------------|---------------------------------|

CHORUS

G|---------------------------------|---------------------------------|
D|---------------------------------|---------------------------------|
A|-0----------0----------0---------|-0----------0----------0---------|
E|---------------------------------|---------------------------------|

G|---------------------------------|---------------------------------|
D|---------------------------------|---------------------------------|
A|-4----------4----------4---------|-4----------4----------4---------|
E|---------------------------------|---------------------------------|

G|---------------------------------|---------------------------------|
D|-----------------4-------3-------|-2-------------------------------|
A|-2-----------2-------------------|---------------------------------|
E|---------------------------------|---------------------------------|

G|---------------------------------|---------------------------------|
D|-----------------2---------------|---------------------------------|
A|-0-----------4-----------4-------|-0-------2-------3-------4-------|
E|---------------------------------|---------------------------------|

BRIDGE

G|---------------------------------|---------------------------------|
D|-0-----------0---0-------0-------|-2-----------2---2-------2-------|
A|---------------------------------|---------------------------------|
E|---------------------------------|---------------------------------|

G|---------------------------------|---------------------------------|
D|-------------------------2-------|-------------------------2-------|
A|-0-----------4-------------------|-0-----------4-------------------|
E|---------------------------------|---------------------------------|

G|---------------------------------|---------------------------------|
D|-----------------4-------4-------|-----------------4---------------|
A|-2-----------2-------------------|-2-----------2-----------2-------|
E|---------------------------------|---------------------------------|

G|---------------------------------|---------------------------------|
D|-2----------2----------2---------|-2----------2----------2---------|
A|---------------------------------|---------------------------------|
E|---------------------------------|---------------------------------|

VERSE

G|---------------------------------|---------------------------------|
D|-------------------------2-------|-------------------------2-------|
A|-0-----------4-------------------|-0-----------4-------------------|
E|---------------------------------|---------------------------------|

G|---------------------------------|---------------------------------|
D|-4-----------4-------------------|-4-----------4-----------4-------|
A|-----------------4-------4-------|-----------------4---------------|
E|---------------------------------|---------------------------------|

G|---------------------------------|---------------------------------|
D|-----------------4-------4-------|-----------------4---------------|
A|-2-----------2-------------------|-2-----------2-----------2-------|
E|---------------------------------|---------------------------------|

G|---------------------------------|---------------------------------|
D|---------------------------------|-2-------0-----------------------|
A|-4-----------4---4-------4-------|-----------------4-------2-------|
E|---------------------------------|---------------------------------|

VERSE

G|---------------------------------|---------------------------------|
D|-------------------------2-------|-------------------------2-------|
A|-0-----------4-------------------|-0-----------4-------------------|
E|---------------------------------|---------------------------------|

G|---------------------------------|---------------------------------|
D|-4-----------4-------------------|-4-----------4-----------4-------|
A|-----------------4-------4-------|-----------------4---------------|
E|---------------------------------|---------------------------------|

G|---------------------------------|---------------------------------|
D|-----------------4-------4-------|-----------------4---------------|
A|-2-----------2-------------------|-2-----------2-----------2-------|
E|---------------------------------|---------------------------------|

G|---------------------------------|---------------------------------|
D|---------------------------------|-2-------0-----------------------|
A|-4-----------4---4-------4-------|-----------------4-------2-------|
E|---------------------------------|---------------------------------|

CHORUS

G|---------------------------------|---------------------------------|
D|---------------------------------|---------------------------------|
A|-0----------0----------0---------|-0----------0----------0---------|
E|---------------------------------|---------------------------------|

G|---------------------------------|---------------------------------|
D|---------------------------------|---------------------------------|
A|-4----------4----------4---------|-4----------4----------4---------|
E|---------------------------------|---------------------------------|

G|---------------------------------|---------------------------------|
D|-----------------4-------3-------|-2-------------------------------|
A|-2-----------2-------------------|---------------------------------|
E|---------------------------------|---------------------------------|

G|---------------------------------|-2-----------2-----------2-------|
D|-----------------2-------4-------|---------------------------------|
A|-0-----------4-------------------|---------------------------------|
E|---------------------------------|---------------------------------|

OUTRO

G|-2-----------2-----------2-------|-2-------2-------2-------2-------|
D|---------------------------------|---------------------------------|
A|---------------------------------|---------------------------------|
E|---------------------------------|---------------------------------|

G|-2-------2-------2-------2-------|-2-------2-------2-------2-------|
D|---------------------------------|---------------------------------|
A|---------------------------------|---------------------------------|
E|---------------------------------|---------------------------------|

G|---------------------------------|---------------------------------|
D|-3---------------4---------------|-5---------------6---------------|
A|---------4---------------5-------|---------6---------------7-------|
E|---------------------------------|---------------------------------|

G|---------------------------------|---------------------------------|
D|-7-------------------------------|-----------------7---------------|
A|-------------9---7---------------|---------------------------------|
E|-------------------------9-------|-5-------------------------------|
Comments