Beatles - Let It Be Chords & Tabs

 

Let It Be Chords & Tabs

Beatles Chords & Tabs

Version: 5 Type: Tab 0 ratings
1 star 2 stars 3 stars 4 stars 5 stars
comments

Let It Be Tab

   
it's the solo part of let it be. i'm pretty sure it is correct.

verses: c g am f c g f em dm c
chorus: am g f c c g f c

(01:45)
e--------------------|
b-10-8-6-5-3-1-0-1-1-|
g-10-9-7-5-3-2-0-2-0-|
d--------------------|
a--------------------|
e--------------------|
play this twice
[ Tab from: http://www.guitartabs.cc/tabs/b/beatles/let_it_be_tab_ver_5.html ]
(01:59)
e---------------------------------------------03530---------------|
b-------------------------------------------1--------31---31------|
g-----------------------020--------0002--------------------20-----|
d-------20-00------02----20---2------------------------------20---|
a----33---3?---3---------3--------------------------------------3-|
e-35----------35--------------------------------------------------|

e----------------0-----------03530-----------08530-12-10-8530530------|
b------------------313------------31------1----------------------3131-|
g----------20----------202------------02------------------------------|
d-----2---------------------------------------------------------------|
a---0---3-------------------------------------------------------------|
e-3-------------------------------------------------------------------|
Comments