Beatles - Let It Be Chords & Tabs

 

Let It Be Chords & Tabs

Beatles Chords & Tabs

Version: 2 Type: Tab 6 ratings
1 star 2 stars 3 stars 4 stars 5 stars
comments

Let It Be Tab

[code]

Let It Be --- Beatles



# h  hammer on    | p  pull off       | b  bend string up
# r  release bend | /  slide up       |   slide down
# v  vibrato      | t  right hand tap | x  play 'note' with heavy damping
# S  slap         | P  pop            |  harmonic
#



* Repeat signs-*
*--------------*

   INTRO

E |-0---0-----------|---------0-------|-0-----0------------------|-1----0-------------------|
B |-1---1---3---3---|-1---1---1---3---|-1-----1------3-----3-----|---------3--1-------------|
G |-0---2---0---0---|-2---2---2---2---|-0-----0------0-----0-----|-2----0---------------0-0-|
D |---------0---0---|-2---2-------3---|--------------0-----0-----|---------3--2-------------|
A |---3---3---------|---0---0---------|----3-----3---------------|---------------3--3-------|
E |-----------3---3-|-----------1---1-|------------2-3--3-----3--|--------------------------|

              VERSE

  find myself
|----------------------------|-0--0-0--------------------|-0--0--0-1-0-0---------0----|
|---------------------1-3----|-1---------3--3--1-1-------|-1----------------3------3--|
|*0--0--0-2---0----0---------|---------------------------|-0-------------------0------|
|*----------2----------------|---------------------------|----------------------------|
|-3--------------------------|-0------0------------------|-3--------------------------|
|---------------3---------3--|-----------3--1------1--3--|---------------3------------|


[ Tab from: http://www.guitartabs.cc/tabs/b/beatles/let_it_be_tab_ver_2.html ]
|-----------------------0--|----------------0--0------||
|-3--1-------------1-------|-3-1------------1----3-1--||
|-------0--0---------0----*|-------0--0---------------||
|-------2--0-----2---2----*|-------2--0---------------||
|-------------3------------|-------------3-----2------||
|-1------------------------|-1------------------------||

              CHORUS

|--------0-3-3/5-0--0--0-0------|------------0---------------|
|------1-------------------3-1--|----3-------------1--1-1-1--|
|*---2--------------------------|-------2p0--------0--0-0-0--|
|*------------------------------|----------------------------|
|-0--------------3--------------|---------------3------------|
|-------------------------------|-1--------------------------|

|-0--0--0h1--0-0---------0-----|----------------0--0------|
|-1-----------------3------3-3-|-3-1-----------------3-1--|
|-0--------------------0-------|-------0--0--------------*|
|------------------------------|-------2--0--------------*|
|-3----------------------------|-------------3-----2------|
|----------------3-------------|-1------------------------|


|---------------------------|-1--0-----------|------------------------|
|-3-1-------------1--1-1-1--|------3-1-------|-----------1-------1----|
|------2-0--0-----0--0-0-0--|-2--0------3-2--|-0---------0------------|
|--------2--0---------------|------3-2--0----|------3----2------------|
|--------------3------------|-------------3--|-2----0----3--3---------|
|-1-------------------------|----------------|-----------3--3--3---3--|

|-------1---------------------|-3--1--0----|
|-----1---------------1-------|-0--1--1----|
|---2-----0--0------0---------|-0--2--0----|
|-3-------2--0----------3--3--|-0--3--2----|
|---------------3-2-----1--0--|-2--3--3----|
|-----------------------------|-3--1--3----|

[/code]
Comments